Rot by Dry Kill Logic

Rot bass tab by Dry Kill Logic

Bass tabs

not really if its right becuse i just basicly took the look at how its played on the
and thought this is the way i wouldd play it on the bass. its a pretty ez song. if u find
problem tell me at taitdouglas@yahoo.com

Song: Rot
Band: Dry Kill Logic

Tuning: Drop C
F

Intro:

F|----------------------|
C|----------------------|
G|----------------------|
C|-0-0-0-0-1p0--0h1--1--|


F|------------------------------|
C|------------------------------|
G|------------------------------|
C|-0-0-0-0--1--0--0-0-0-0--0--1-|

Intro2/Verse1

F|----------------------------------|
C|----------------------------------|
G|----------------------------------|
C|-0-0-0-0-0-0-0h1--0-0-0-0-0-0--0--|

F|----------------------------------|
C|----------------------------------|
G|----------------------------------|
C|-0-0-0-0-0-0-0h1--0-0-0-0-0-0--0--|


F|----------------------------|
C|----------------------------|
G|----------------------------|
C|-0-0--0h1-1--0-0-0--0h1-2-0-|


Interlude 2:
F|----------------------------------------|
C|----------------------------------------|
G|----------------------------------------|
C|-0-00-2-0-00-2-0-2--0-00-2-0-00-6-0-6---|

Ending:
F|-----------------------------------------|
C|-----------------------------------------|
G|-----------------------------------------|

Find guitar tabs and chords

A B C D E F G H I J K L M N O P Q R S T U V W X Y Z #