Lost by Dry Kill Logic

Lost tab by Dry Kill Logic

Guitar tabs

LOST - Dry Kill Logic
-------------------------------------------------------------------------------
Tabbed by: Hondafmxer
Email: Redriderx2@hotmail.com

b=Bend

Tuning: Drop D

  Intro

  PM------------]  PM----------------------|         x2
e|-------------------------------------------|
B|-------------------------------------------|
G|-------------------------------------------|
D|-00000000000000013-0000000000000011111111--|
A|-00000000000000013-0000000000000011111111--|
D|-00000000000000000-0000000000000000000000--|

  Pre-Chorus
         PM--]                x4
e|-----------------------------------------------------------------------------|
B|-----------------------------------------------------------------------------|
G|-----------------------------------------------------------------------------|
D|---------------0-0-0-1-1-0-0-------------------------------------------------|
A|---------------0-0-0-1-1-0-0-------------------------------------------------|
D|-5b-0-1b-0-4b--0-0-0-1-1-0-0-------------------------------------------------|

  Chorus

  PM--]   PM   PM     PM   PM   PM      x2
e|-----------------------------------------------------------------------------|
B|-----------------------------------------------------------------------------|
G|-----------------------------------------------------------------------------|
D|-0-0-0-2-1-0-0-1-0-0-0-1-1-3-0-0-0-2-1-0-0-1-0-0-0-1--1-2-1-0----------------|
A|-0-0-0-2-1-0-0-1-0-0-0-1-1-3-0-0-0-2-1-0-0-1-0-0-0-1--1-2-1-0----------------|
D|-0-0-0-2-1-0-0-1-0-0-0-1-1-3-0-0-0-2-1-0-0-1-0-0-0-1--1-2-1-0----------------|

  1:29

  [---lightly PM near bridge--------------------------------------------------|   x4
e|-----------------------------------------------------------------------------|
B|-----------------------------------------------------------------------------|
G|----------------------------------------------next----888?-x8----------------|
D|------------------------------------------------------888?-------------------|
A|-1-0-0-1-0-0-1-0-0-1-0-0-11113333--------------------------------------------|

Find guitar tabs and chords

A B C D E F G H I J K L M N O P Q R S T U V W X Y Z #