Log in

One click and you are in

Login with Facebook Login with Google

Why sign up and log in

Guitar Tabs Explorer
Dry Kill Logic tabs for Goodnight

Guitar tabs

Album:A Darker Side Of Nonsence
Tabbed by: Paul Nolan (i_luv_robb_flynn@hotmail.com)

No matter what anyone says this tab is pefect,you will find it hard at
first, but with a bit of practice it will sound excellent!

Try and play with your hand in the shape of A chord diagramC majorC major for the first part.

p= Pull-off.
h= Hammer-on.
/= Slide.
()= No time scale.

Standard Tuning
Intro and Verse:

e|-0------------------------------------------------------------------
b|----0h1p0-----0h1--------3p1------3-------3-1------1-0------0-0h1---
g|----------0--------0---------0------0---------0--------0----------0-
d|---------------------2----------------------------------------------
a|--------------3----------------3------3---------3--------3----------
A chord diagramE MajorE|-0------------------------------------------------------------------


e|-0-----------------------3p0-----------------------------------
b|----0h1p0-----0h1-----------------3-------1------0------1------
g|----------0--------0---------0------0-------0------0------0----
d|---------------------2---------2-------------------------------
a|--------------3-----------------------3-------3------3------3--
A chord diagramE MajorE|-0-------------------------------------------------------------cont...

----------|
--3-1-0---|
--------0-|
----------|
----------|
----------|

                  C'major   (strum)
e|-0----------------------0---------|
b|----0h1p0---------------1---------|
g|-----------0------------0---------|
d|------------------------2---------|
a|------------------------3---------|
A chord diagramE MajorE|-0----------------------0---------|

e|--------------------------------------------------------------------|
b|-----0-----0----------------0---------------------------------------|
g|-------0-----0------0---------0------------0------0-----0-----0-----|
d|---2-----2--------7---(7)/9-----------10-------10-----5-----4---4/2-|
a|----------------5-----(5)/7-----7/8-8----8---8------3-----2---------|
A chord diagramE MajorE|-0------------------------------------------------------------------|
                                                                Repeat
  E'major+9      C'major+9     B'major    (strum)
e|-----3-------------3------------2--------3--------2--------3---|
b|-----3-------------3------------3--------3--------3--------3---|
g|-----0-------------0------------2--------0--------2--------0---|
d|-----2-------------2------------0--------2--------0--------2---|
a|-----2-------------3---------------------3-----------------3---|
A chord diagramE MajorE|-----0-------------0---------------------0-----------------0---|

  Repeat Intro then:

  C'major+9-5  (strum)
e|-----0--------------------|
b|-----3--------------------|
g|-----0------------0----0--|
d|-----2----------4---4--2--|
a|-----3------3/5--------3--|
A chord diagramE MajorE|-----0--------------------|

Thats it, if your not sure about the order in which its played just listen
to the c.d and you'll figure it out. Any comments or corrections, e-mail me.
ⓘ Guitar tab for 'Goodnight' by Dry Kill Logic, formed in 1995

Almost there ...

Sign in to get your own page with links to favourite songs and more. You are just one click away...

Login with Facebook Login with Google