Log in

One click and you are in

Login with Facebook Login with Google

Why sign up and log in

Guitar Tabs Explorer
Dry Cleaning bass tabs for Unsmart lady

Bass tabs with lyrics

Tuning: Standard (E A D G)


Intro: 0:00 - 0:15

G|------------------------------------------------------------------------------|
D|------------------------------------------------------------------------------|
A|8-8-8-8-8-8-8-8-8-8-8-8-8-8-8-8-8-8-8-8-8-8-8-8-8-8-8-8-8-8-8-8---8b----8b--8b|
E|------------------------------------------------------------------------------|


Verse 1: 0:25

Don't cry just drive
G|------------------------------------------------------------------------------|
D|------------------------------------------------------------------------------|
A|--------------------12-12-12-12-12-12-12-12-----------------------------------|
E|3-5-5--3-5-5--3-5-------------------------------------------------------------|

Good luck band
G|------------------------------------------------------------------------------|
D|------------------------------------------------------------------------------|
A|--------------------12-12-12-12-12-12-12-12-----------------------------------|
E|3-5-5--3-5-5--3-5-------------------------------------------------------------|

What've you been doing?
G|------------------------------------------------------------------------------|
D|------------------------------------------------------------------------------|
A|--------------------12-12-12-12-12-12-12-12-----------------------------------|
E|3-5-5--3-5-5--3-5-------------------------------------------------------------|

Yeah
G|------------------------------------------------------------------------------|
D|------------------------------------------------------------------------------|
A|--------------------12-12-12-12-12-12-12-12-----------------------------------|
E|3-5-5--3-5-5--3-5-------------------------------------------------------------|

Chorus:

Fat podgy
G|----------------------------------------|
D|----------------------------------------|
A|-3/--8-8---3/--8-8---3/--8-8---3/--8-8--|
E|----------------------------------------|

Non make-up
G|----------|
D|---6------|
A|-8---8----|
E|----------|

Unsmart lady
G|-------------------------------------|
G|-------------------------------------|
A|-------------------------------------|
E|3-5-5--3-5-5--3-5-5--3-5-5--3-5-5-5--|


Verse 2:

Call Ronny
G|-------------------------------------|
G|-------------------------------------|
A|-------------------------------------|
E|3-5-5--3-5-5--3-5-5--3-5-5--3-5-5-5--|

What've you been up to?
G|-------------------------------------|
G|-------------------------------------|
A|-------------------------------------|
E|3-5-5--3-5-5--3-5-5--3-5-5--3-5-5-5--|

Cool
G|-------------------------------------|
G|-------------------------------------|
A|-------------------------------------|
E|3-5-5--3-5-5--3-5-5--3-5-5--3-5-5-5--|

Yeah
G|-------------------------------------|
G|-------------------------------------|
A|-------------------------------------|
E|3-5-5--3-5-5--3-5-5--3-5-5--3-5-5-5--|


Chorus:

Fat podgy
G|----------------------------------------|
D|----------------------------------------|
A|-3/--8-8---3/--8-8---3/--8-8---3/--8-8--|
E|----------------------------------------|

Non make-up
G|----------|
D|---6------|
A|-8---8----|
E|----------|

Unsmart lady
G|-------------------------------------|
G|-------------------------------------|
A|-------------------------------------|
E|3-5-5--3-5-5--3-5-5--3-5-5--3-5-5-5--|


Verse 3:

If you like a girl, be nice
G|-------------------------------------|
G|-------------------------------------|
A|-------------------------------------|
E|3-5-5--3-5-5--3-5-5--3-5-5--3-5-5-5--|

It's not rocket science
G|-------------------------------------|
G|-------------------------------------|
A|-------------------------------------|
E|3-5-5--3-5-5--3-5-5--3-5-5--3-5-5-5--|

A tanned foot squeezed hopefully into a short boot
G|-------------------------------------|
G|-------------------------------------|
A|-------------------------------------|
E|3-5-5--3-5-5--3-5-5--3-5-5--3-5-5-5--|

A Kerry Bog Pony
G|-------------------------------------|
G|-------------------------------------|
A|-------------------------------------|
E|3-5-5--3-5-5--3-5-5--3-5-5--3-5-5-5--|

Interlude:
G|-------------------------------------|
G|-------------------------------------|
A|2-2-2-1-1-1-1-1-0-0-0-0-0-0-0-0------|
E|-------------------------------------|

High fever
G|-------------------------------------|
G|-------------------------------------|
A|2-2-2-1-1-1-1-1-0-0-0-0-0-0-0-0------|
E|-------------------------------------|

Hair remover
G|-------------------------------------|
G|-------------------------------------|
A|2-2-2-1-1-1-1-1-0-0-0-0-0-0-0-0------|
E|-------------------------------------|

Hair remover
G|-------------------------------------|
G|-------------------------------------|
A|2-2-2-1-1-1-1-1-0-0-0-0-0-0-0-0------|
E|-------------------------------------|

Hair fever
G|-------------------------------------|
G|-------------------------------------|
A|2-2-2-1-1-1-1-1-0-0-0-0-0-0-0-0------|
E|-------------------------------------|

Hair remover
G|-------------------------------------|
G|-------------------------------------|
A|2-2-2-1-1-1-1-1-0~-------------------|
E|-------------------------------------|


Verse 1:

Don't cry just drive

Good luck band
G|-------------------------------------|
G|-------------------------------------|
A|-------------------------------------|
E|3-5-5--3-5-5--3-5-5--3-5-5--3-5-5-5--|

What've you been doing?
G|-------------------------------------|
G|-------------------------------------|
A|-------------------------------------|
E|3-5-5--3-5-5--3-5-5--3-5-5--3-5-5-5--|

Yeah
G|-------------------------------------|
G|-------------------------------------|
A|-------------------------------------|
E|3-5-5--3-5-5--3-5-5--3-5-5--3-5-5-5--|


Chorus:

Fat podgy
G|----------------------------------------|
D|----------------------------------------|
A|-3/--8-8---3/--8-8---3/--8-8---3/--8-8--|
E|----------------------------------------|

Non make-up
G|----------|
D|---6------|
A|-8---8----|
E|----------|

Unsmart lady
G|-------------------------------------|
G|-------------------------------------|
A|-------------------------------------|
E|3-5-5--3-5-5--3-5-5--3-5-5--3-5-5-5--|


Outro:

Fat podgy
G|----------------------------------------|
D|----------------------------------------|
A|-3/--8-8---3/--8-8---3/--8-8---3/--8-8--|
E|----------------------------------------|

Non make-up
G|----------|
D|---6------|
A|-8---8----|
E|----------|


************************************

| b Bend
| / Slide up
| ~ Vibrato

************************************

Almost there ...

Sign in to get your own page with links to favourite songs and more. You are just one click away...

Login with Facebook Login with Google