Log in

One click and you are in

Login with Facebook Login with Google

Why sign up and log in

Guitar Tabs Explorer
Dry Cleaning bass tabs for Scratchcard lanyard

Scratchcard Lanyard bass tab by Dry Cleaning

Dry Cleaning bass tabs for Scratchcard lanyard

Bass tabs with lyrics

Tuning: Standard (E A D G)

🎸 Intro:

G|----------------|---------------|----------------|---------------|
D|----9-9-9-9-9-9-|-9-------------|----9-9-9-9-9-9-|-9-------------|
A|----------------|---------------|----------------|---------------|
E|-0--------------|----0--5-5-5-7-|-0--------------|----0--5-5-5-7-|

G|----------------|---------------|----------------|---------------|
D|----9-9-9-9-9-9-|-9-------------|----9-9-9-9-9-9-|-9-------------|
A|----------------|---------------|----------------|---------------|
E|-0--------------|----0--5-5-5-7-|-0--------------|----0--5-5-5-7-|
🎸 Verse 1:
Many years have passed but you're still charming
G|----------------|---------------|
D|----9-9-9-9-9-9-|-9-------------|
A|----------------|---------------|
E|-0--------------|----0--5-5-5-7-|

Rose falling and exploding and you can't save the world on your own
G|----------------|---------------|----------------|-------|
D|----9-9-9-9-9-9-|-9-------------|----9-9-9-9-9-9-|-9-----|
A|----------------|---------------|----------------|-------|
E|-0--------------|----0--5-5-5-7-|-0--------------|----0--|

I guess
G|---------|
D|---------|
A|---------|
E|-5-5-5-7-|

G|----------------|-------|
D|----9-9-9-9-9-9-|-9-----|
A|----------------|-------|
E|-0--------------|----0--|

Don't send me it

G|---------|
D|---------|
A|---------|
E|-5-5-5-7-|

G|----------------|-------|
D|----9-9-9-9-9-9-|-9-----|
A|----------------|-------|
E|-0--------------|----0--|

You keep it
G|---------|
D|---------|
A|---------|
E|-5-5-5-7-|

G|----------------|-----------------|
D|----9-9-9-9-9-9-|-9-9-9-9-9-9-9-9-|
A|----------------|-----------------|
E|-0--------------|-----------------|

You keep it

G|-------------|-------------|-------------|-------------|-------------|-------------|
D|-------------|-------------|-------------|-------------|-------------|-------------|
A|-2--2--2--2--|-2--2--2--2--|-2--2--2--2--|-2--2--2--2--|-2--2--2--2--|-2--2--2--2--|
E|-------------|-------------|-------------|-------------|-------------|-------------|

You keep it

G|-------------|-------------|
D|-------------|-------------|
A|-2--2--2--2--|-2--2--2--2--|
E|-------------|-------------|

🎸 Verse 2:
Weak arms can't open the door, kung fu council

G|-------------------|--------------|-------------|
D|-------------------|--------------|-------------|
A|----2--2--2--2--2--|-2-2-10-10-10-|-2--2--2--2--|
E|-0-----------------|--------------|-------------|

It'll be okay, I just need to be weird and hide for a bit

G|-----------------|-------------|-------|
D|-----------------|-------------|-------|
A|-2-2-10-10-10-10-|-10-10-10-10-|-2--2--|
E|-----------------|-------------|-------|

And eat an old sandwich from my bag

G|-----------------|-------------|-------------|
D|-----------------|-------------|-------------|
A|-2-2-10-10-10-10-|-10-10-10-10-|-2--2--2--2--|
E|-----------------|-------------|-------------|


🎸 Pre-Chorus:
I've come here to make a ceramic shoe

G|-------------------|--------------|
D|-------------------|--------------|
A|----2--2--2--2--2--|-2-2-10-10-10-|
E|-0-----------------|--------------|

And I've come to smash what you made

G|-------------|------|
D|-------------|------|
A|-2--2--2--2--|-2-2--|
E|-------------|------|

I've come to learn how to mingle

G|-----------------|-----------------|
D|-----------------|-----------------|
A|-10--10--10--10--|-10--10--10--10--|
E|-----------------|-----------------|

I've come to learn how to dance

G|-------------|-------|
D|-------------|-------|
A|-2--2--2--2--|-10-10-|
E|-------------|-------|

I've come to join your knitting circle

G|-------|-------------|-------|
D|-------|-------------|-------|
A|-10-10-|-2--2--2--2--|-10-10-|
E|-------|-------------|-------|

I've come to hand weave my own bunk bed ladder in a few short sessions

G|---------|-------------|-----------------|-----------------|
D|---------|-------------|-----------------|-----------------|
A|-10--10--|-2--2--2--2--|-10--10--10--10--|-10--10--10--10--|
E|---------|-------------|-----------------|-----------------|


🎸 Chorus:
It's a Tokyo bouncy ball

G|-----------------|
D|-----------------|
A|-10--10--10--10--|
E|-----------------|

It's an Oslo bouncy ball

G|-------------------|
D|-------------------|
A|-10--10--10--12-12-|
E|-------------------|

It's a Rio de Janeiro bouncy ball

G|-------------|--------------|
D|-------------|--------------|
A|-5--5--5--5--|-5--5--5--7-7-|
E|-------------|--------------|

Filter, I love these mighty oaks, don't you?

G|-------------|--------------|
D|-------------|--------------|
A|-------------|--------------|
E|-5--5--5--5--|-5--5--5--7-7-|

Do everything and feel nothing

G|-------------|--------------|
D|-------------|--------------|
A|-------------|--------------|
E|-5--5--5--5--|-5--5--5--7-7-|

Wristband themepark, scratchcard lanyard

G|-----------------|-------------------|
D|-----------------|-------------------|
A|-10--10--10--10--|-10--10--10--12-12-|
E|-----------------|-------------------|

Do everything and feel nothing

G|-------------|--------------|
D|-------------|--------------|
A|-5--5--5--5--|-5--5--5--7-7-|
E|-------------|--------------|

G|-------------|--------------|
D|-------------|--------------|
A|-------------|--------------|
E|-5--5--5--5--|-5--5--5--7-7-|

Do everything and feel nothing

G|-------------|--------------|
D|-------------|--------------|
A|-------------|--------------|
E|-5--5--5--5--|-5--5--5--7-7-|


🎸 Verse 3:
Pat Dad on the head

G|-------------------|--------------|
D|-------------------|--------------|
A|----2--2--2--2--2--|-2-2-10-10-10-|
E|-0-----------------|--------------|

Alright, you big loud mouth

G|-------------|------|
D|-------------|------|
A|-2--2--2--2--|-2-2--|
E|-------------|------|

And thanks very much for the Twix

G|-----------------|-----------------|
D|-----------------|-----------------|
A|-10--10--10--10--|-10--10--10--10--|
E|-----------------|-----------------|

G|-------------|-----------------|------|
D|-------------|-----------------|------|
A|-2--2--2--2--|-10--10--10--10--|-2-2--|
E|-------------|-----------------|------|

I think of myself as a hardy banana with that waxy surface

G|-------------------|--------------|-------------|------|
D|-------------------|--------------|-------------|------|
A|----2--2--2--2--2--|-2-2-10-10-10-|-2--2--2--2--|-2-2--|
E|-0-----------------|--------------|-------------|------|

And small delicate flowers

G|-----------------|
D|-----------------|
A|-10--10--10--10--|
E|-----------------|


A woman in aviators firing a bazooka

G|---------|-------------|-----------------|
D|---------|-------------|-----------------|
A|-10--10--|-2--2--2--2--|-10--10--10--10--|
E|---------|-------------|-----------------|

G|-------------|---------|
D|-------------|---------|
A|-2--2--2--2--|-10--10--|
E|-------------|---------|

A woman in aviators firing a bazooka

G|---------|-------------|-----------------|
D|---------|-------------|-----------------|
A|-10--10--|-2--2--2--2--|-10--10--10--10--|
E|---------|-------------|-----------------|

G|-----------------|
D|-----------------|
A|-10--10--10--10--|
E|-----------------|

🎸 Pre-Chorus:
I've come here to make a ceramic shoe

G|----------------|-------|
D|----9-9-9-9-9-9-|-9-----|
A|----------------|-------|
E|-0--------------|----0--|

And I've come to smash what you made

G|---------|----------------|-------|
D|---------|----9-9-9-9-9-9-|-9-----|
A|---------|----------------|-------|
E|-5-5-5-7-|-0--------------|----0--|

I've come to learn how to mingle

G|---------|----------------|----------------|
D|---------|----9-9-9-9-9-9-|-9--------------|
A|---------|----------------|----------------|
E|-5-5-5-7-|-0--------------|----0---5-5-5-7-|

I've come to learn how to dance

G|----------------|---------------|
D|----9-9-9-9-9-9-|-9-------------|
A|----------------|---------------|
E|-0--------------|----0--5-5-5-7-|

I've come to join the knitting circle

G|----------------|---------------|
D|----9-9-9-9-9-9-|-9-------------|
A|----------------|---------------|
E|-0--------------|----0--5-5-5-7-|

That's just child chat

G|----------------|-----------------|
D|----9-9-9-9-9-9-|-9-9-9-9-9-9-9-9-|
A|----------------|-----------------|
E|-0--------------|-----------------|

Why don't you want oven chips now?

G|-------------|-------------|-------------|-------------|
D|-------------|-------------|-------------|-------------|
A|-2--2--2--2--|-2--2--2--2--|-2--2--2--2--|-2--2--2--2--|
E|-------------|-------------|-------------|-------------|


🎸 Chorus:
It's a Tokyo bouncy ball

G|-----------------|
D|-----------------|
A|-10--10--10--10--|
E|-----------------|

It's an Oslo bouncy ball

G|-------------------|
D|-------------------|
A|-10--10--10--12-12-|
E|-------------------|

It's a Rio de Janeiro bouncy ball

G|-------------|--------------|
D|-------------|--------------|
A|-5--5--5--5--|-5--5--5--7-7-|
E|-------------|--------------|

Filter, I love these mighty oaks, don't you?

G|-------------|--------------|
D|-------------|--------------|
A|-------------|--------------|
E|-5--5--5--5--|-5--5--5--7-7-|

Do everything and feel nothing

G|-------------|--------------|
D|-------------|--------------|
A|-------------|--------------|
E|-5--5--5--5--|-5--5--5--7-7-|

Wristband themepark, scratchcard lanyard

G|-----------------|-------------------|
D|-----------------|-------------------|
A|-10--10--10--10--|-10--10--10--12-12-|
E|-----------------|-------------------|

Do everything and feel nothing

G|-------------|--------------|
D|-------------|--------------|
A|-5--5--5--5--|-5--5--5--7-7-|
E|-------------|--------------|

G|-------------|--------------|
D|-------------|--------------|
A|-------------|--------------|
E|-5--5--5--5--|-5--5--5--7-7-|

Do everything and feel nothing

G|-------------|--------------|
D|-------------|--------------|
A|-------------|--------------|
E|-5--5--5--5--|-5--5--5--7-7-|


🎸 Outro:

G|-----------------|-------------------|-------------|--------------|
D|-----------------|-------------------|-------------|--------------|
A|-10--10--10--10--|-10--10--10--12-12-|-5--5--5--5--|-5--5--5--7-7-|
E|-----------------|-------------------|-------------|--------------|

G|-------------|--------------|-------------|--------------|
D|-------------|--------------|-------------|--------------|
A|-------------|--------------|-------------|--------------|
E|-5--5--5--5--|-5--5--5--7-7-|-5--5--5--5--|-5--5--5--7-7-|

G|-----------------|-------------------|-------------|--------------|
D|-----------------|-------------------|-------------|--------------|
A|-10--10--10--10--|-10--10--10--12-12-|-5--5--5--5--|-5--5--5--7-7-|
E|-----------------|-------------------|-------------|--------------|

G|-------------|--------------|-------------|--------------|
D|-------------|--------------|-------------|--------------|
A|-------------|--------------|-------------|--------------|
E|-5--5--5--5--|-5--5--5--7-7-|-5--5--5--5--|-5--5--5--7-7-|

You seem really together, you've got a new coat, new hair

G|-----------------|-------------------|
D|-----------------|-------------------|
A|-10--10--10--10--|-10--10--10--12-12-|
E|-----------------|-------------------|

Well, I'll tell you one thing, you've got it coming

G|-------------|--------------|
D|-------------|--------------|
A|-5--5--5--5--|-5--5--5--7-7-|
E|-------------|--------------|

One day you're gonna get it

G|-------------|--------------|
D|-------------|--------------|
A|-------------|--------------|
E|-5--5--5--5--|-5--5--5--7-7-|

G|-------------|--------------|
D|-------------|--------------|
A|-------------|--------------|
E|-5--5--5--5--|-5--5--5--7-7-|

Ha

G|-----------------|-------------------|
D|-----------------|-------------------|
A|-10--10--10--10--|-10--10--10--12-12-|
E|-----------------|-------------------|

G|-------------|--------------|-------------|-------------|----|
D|-------------|--------------|-------------|-------------|----|
A|-5--5--5--5--|-5--5--5--7-7-|-------------|-------------|----|
E|-------------|--------------|-5--3--5--3--|-5--3--5--3--|-5--|

Almost there ...

Sign in to get your own page with links to favourite songs and more. You are just one click away...

Login with Facebook Login with Google