Log in

One click and you are in

Login with Facebook Login with Google

Why sign up and log in

Guitar Tabs Explorer
Dry Cleaning bass tabs for Phone scam

Bass tabs with lyrics

Tuning: Standard (E A D G)


♫ Verse:
G|----------------------------------|
D|----------------------------------|
A|---5--------7-7---5---------------| x4
E|-----0-3-5----------7-7---0-5-5---|
She said she'd asked 20 girls already
I feel really horrible, but also that she doesn't have the right to scream at me in my face
Pre-Chorus:
G|--------------------------------------|
D|--------------------------------------|
A|--------------------------------------|
E|---10-7-10-7-10-7-10-7-10-7-10-7------|


♫ Chorus:
G|----------------------------------|
D|----------------------------------|
A|----------------------------------| x3
E|---5---5-0-5---5-0-5-5-5----------|

G|----------------------------------|
D|----------------------------------|
A|----------------------------------|
E|---5---5-0-5---5-5-5-5-5-5-5------|
She said I was a horrible cunt
She said I was a bastard
She screamed and screamed 'I don't want to touch it'


♫ Verse:
Also, no one seemed to be very bothered by the fact that she was screaming at me
G|----------------------------------|
D|----------------------------------|
A|---5--------7-7---5---------------| x2
E|-----0-3-5----------7-7---0-5-5---|
I had the feeling that what she was saying was a script

Pre-Chorus:
G|--------------------------------------|
D|--------------------------------------|
A|--------------------------------------|
E|---10-7-10-7-10-7-10-7-10-7-10-7------|


♫ Chorus:
G|----------------------------------|
D|----------------------------------|
A|----------------------------------| x3
E|---5---5-0-5---5-0-5-5-5----------|

G|----------------------------------|
D|----------------------------------|
A|----------------------------------|
E|---5---5-0-5---5-5-5-5-5-5-5------|
She said I was a horrible cunt
She said I was a dickhead
She screamed and screamed 'I don't want to touch it'


♫ Bridge:
G|-------------------------------------|
D|-------------------------------------|
A|---7---7-9---------7---7-9-----------| x6
E|-----------7---7-9---------7---7-9---|

G|---------------------------------------------|
D|---------------------------------------------|
A|---7---7-9------------10-10-10-10-10-10-10---| x3
E|-----------7---7-9-7-------------------------|
'I don't want to touch it'

G|------------------------------------------------------|
D|------------------------------------------------------|
A|---7---7-9------------10-10-10-10-10-10-10-10-10-10---|
E|-----------7---7-9-7----------------------------------|
I never said she did want to touch it


♫ Chorus:
G|-----------------------------------|
D|-----------------------------------|
A|---------------------------5-------| x3
E|---5---5-0-5---5-0-5-5-5-----7-0---|

G|-----------------------------------|
D|-----------------------------------|
A|-----------------------------------|
E|---5---5-0-5---5-5-5-5-5-5-5-------|
She said I was a horrible cunt
She said I was a dickhead
She screamed and screamed 'I don't want to touch it'


♫ Outro:
G|-------------------------------------|
D|-------------------------------------|
A|---7---7-9---------7---7-9-----------| x7
E|-----------7---7-9---------7---7-9---|
I had my phone out, she knew I had a phone
And moved on to asking to use the phone very quickly
I felt vulnerable to her stealing it
I felt very vulnerable that it was some kind of a scam
Because I've been conned before

G|------------------------------------------|
D|------------------------------------------|
A|---7---7-9---------7---7-9-7---7---9------|
E|-----------7---7-9------------------------|

Almost there ...

Sign in to get your own page with links to favourite songs and more. You are just one click away...

Login with Facebook Login with Google