Log in

One click and you are in

Login with Facebook Login with Google

Why sign up and log in

Guitar Tabs Explorer
Dry Cleaning bass tabs for Dog proposal

Bass tabs

Tuning: Standard (E A D G)

🎸 Intro:
G|-------------------------------------|
D|-------------------------------------|
A|---------------------------9-10-11---| x10
E|---9---9-9-9-9-9-9-9-9-9-9-----------|

🎸 Verse:
G|-------------------------------------------------|
D|-------------------------------------------------|
A|--------------------------------------11-12-13---| x2
E|---11---11----11-11-11-11----11-11-11------------|

G|-----------------------------------------------------------------------------|
D|-----------8h10-8------------8h10-8------------8h10-8------------8h10-8------|
A|-------11---------11-----11---------11-----11---------11-----11---------11---|
E|---9-----------------9-----------------9-----------------9-------------------|

G|-------------------------------------------------|
D|-------------------------------------------------|
A|--------------------------------------11-12-13---| x2
E|---11---11----11-11-11-11----11-11-11------------|

G|-----------------------------------------------------------------------------|
D|-----------8h10-8------------8h10-8------------8h10-8------------8h10-8------|
A|-------11---------11-----11---------11-----11---------11-----11---------11---|
E|---9-----------------9-----------------9-----------------9-------------------|


🎸 Chorus:
G|-------------------------------------|
D|-------------------------------------|
A|---------------------------9-10-11---| x8
E|---9---9-9-9-9-9-9-9-9-9-9-----------|

🎸 Verse:
G|-------------------------------------------------|
D|-------------------------------------------------|
A|--------------------------------------11-12-13---| x2
E|---11---11----11-11-11-11----11-11-11------------|

G|-----------------------------------------------------------------------------|
D|-----------8h10-8------------8h10-8------------8h10-8------------8h10-8------|
A|-------11---------11-----11---------11-----11---------11-----11---------11---|
E|---9-----------------9-----------------9-----------------9-------------------|

G|-------------------------------------------------|
D|-------------------------------------------------|
A|--------------------------------------11-12-13---| x2
E|---11---11----11-11-11-11----11-11-11------------|

G|-----------------------------------------------------------------------------|
D|-----------8h10-8------------8h10-8------------8h10-8------------8h10-8------|
A|-------11---------11-----11---------11-----11---------11-----11---------11---|
E|---9-----------------9-----------------9-----------------9-------------------|


🎸 Bridge:
G|-------------------------------------|
D|-------------------------------------|
A|---------------------------9-10-11---| x4
E|---9---9---9-9-9---9-9-9-------------|


🎸 Verse:
G|-------------------------------------|
D|-------------------------------------|
A|---------------------------9-10-11---| x4
E|---9---9-9-9-9-9-9-9-9-9-9-----------|

G|-------------------------------------------------|
D|-------------------------------------------------|
A|--------------------------------------11-12-13---| x2
E|---11---11----11-11-11-11----11-11-11------------|

G|-----------------------------------------------------------------------------|
D|-----------8h10-8------------8h10-8------------8h10-8------------8h10-8------|
A|-------11---------11-----11---------11-----11---------11-----11---------11---|
E|---9-----------------9-----------------9-----------------9-------------------|

G|-------------------------------------------------|
D|-------------------------------------------------|
A|--------------------------------------11-12-13---| x2
E|---11---11----11-11-11-11----11-11-11------------|

G|-----------------------------------------------------------------------------|
D|-----------8h10-8------------8h10-8------------8h10-8------------8h10-8------|
A|-------11---------11-----11---------11-----11---------11-----11---------11---|
E|---9-----------------9-----------------9-----------------9-------------------|


🎸 Outro:
G|---------------------------------------11-12-13---|
D|---11-11-11-11-11-11-11-11-11-11-11---------------|
A|--------------------------------------------------|
E|--------------------------------------------------|

G|---13-------------13----------13-------11-12-13---|
D|------11-11-11-11----11-11-11---------------------|
A|--------------------------------------------------|
E|--------------------------------------------------|

G|---13-------------13----------13-------11-12-13---|
D|------11-11-11-11----11-11-11---------------------|
A|--------------------------------------------------|
E|--------------------------------------------------|

G|------13----------13----------13-------11-12-13---|
D|---11----11-11-11----11-11-11---------------------|
A|--------------------------------------------------|
E|--------------------------------------------------|

G|------------------------11--12--13---|------------------------11--12--13---|
D|---11-----11-----11------------------|---11-----11-----11------------------|
A|-------------------------------------|-------------------------------------|
E|-------------------------------------|-------------------------------------|

G|-------------------------------------|
D|-------------------------------------|
A|-------------------------------------|
E|---9---------------------------------|


***********************************
| h  Hammer-on
***********************************

Almost there ...

Sign in to get your own page with links to favourite songs and more. You are just one click away...

Login with Facebook Login with Google