Log in

One click and you are in

Login with Facebook Login with Google

Why sign up and log in

Guitar Tabs Explorer
Drowning Pool tabs for Bodies

Guitar tabs

Album: Sinner
As tabbed by Joe Muggah

Dropped A chord diagramD MajorD and tuned down a step
Chorus
d----------------------------------------------------------
A----------------------------------------------------------
F--7--7-7--------------------------------------------------
C--x--x-x--6--6-6-6--0--0-0--6-6-6-3-0---------------------
G--5--5-5--6--6-6-6--0--0-0--6-6-6-3-0---------------------
C----------6--6-6-6--0--0-0--6-6-6-3-0---------------------


Verse (different versions of the same thing)
d------------------------15-15-15-15-----------------------
A------15-15-15-15-------15-15-15-15-----------------------
F------14-14-14-14-------15-15-15-15-----------------------
C--12--12-12-12-12---12------------------------------------
G--12----------------12------------------------------------
C----------------------------------------------------------


Pre-Chorus 1
d----------------------------------15-15-15\---------------
A----------------------------------15-15-15\---------------
F-------------7-7-7-7--------------15-15-15\---------------
C--0m-0m-0m---x-x-x-x---0m-0m-0m---------------------------
G--0m-0m-0m---5-5-5-5---0m-0m-0m---------------------------
C--0m-0m-0m-------------0m-0m-0m---------------------------
("One...nothing wrong with me...")


Pre-Chorus 2
d--------------------------------15---15-------------------
A--------------------------------15---15-------------------
F-------------7---7--------------15---15-------------------
C--0m-0m-0m---x---x---0m-0m-0m-----------------------------
G--0m-0m-0m---5---5---0m-0m-0m-----------------------------
C--0m-0m-0m-----------0m-0m-0m-----------------------------
("One...somethings got to give...")

Riff
d----------------------------------------------------------
A--15-16-15----15-18-15----15-16-15----15-18-15------------
F----------------------------------------------------------
C----------------------------------------------------------
G----------------------------------------------------------
C----------------------------------------------------------


Bridge
d----------------------------------------------------------
A----------------------------------------------------------
F----------------------------------------------------------
C-----------------0---0--0--0-0-0-0--0-0-0-----------------
G-----------------0---0--0--0-0-0-0--0-0-0-----------------
C--0h6p0h6p0h3p0--0---0--0--0-0-0-0--0-0-0-----------------

(continued)
d----------------------------------------------------------
A----------------------------------------------------------
F----------------------------------------------------------
C-----------------0---3--3--1-1-1--1-1-1-------------------
G-----------------0---3--3--1-1-1--1-1-1-------------------
C--0h6p0h6p0h3p0--0---3--3--1-1-1--1-1-1-------------------


Pre-Chorus 3
d----------------------------------------------------------
A----------------------------------------------------------
F----------------------------------------------------------
C--0m-0m-0m------0m-0m-0m------0m-0m-0m------0m-0m-0m------
G--0m-0m-0m------0m-0m-0m------0m-0m-0m------0m-0m-0m------
C--0m-0m-0m--<5>-0m-0m-0m--<5>-0m-0m-0m--<5>-0m-0m-0m------


Chorus

Verse

Verse (clean)

Pre-Chorus 1

Pre-Chorus 2, Riff

Chorus

Verse

Verse (clean)

Pre-Chorus 1

Pre-Chorus 2, Riff

Chorus

Bridge

Verse

Pre-Chorus 3

Pre-Chorus 2

Chorus



To all who care I just want to say a few things about Dave Willams(lead singer
of DP) He was a great person. And he should be rembered for dp's music
and for the fact that he loved all of his fans I hope that dp will find
someone else to take Daves place as the lead singer just to keep the memories
of Dave alive. We will miss you Dave!

Dave Williams Born: 1972 died 2002. Let the music live on.

Other versions of Bodies

BodiesChords

Almost there ...

Sign in to get your own page with links to favourite songs and more. You are just one click away...

Login with Facebook Login with Google