Log in

One click and you are in

Login with Facebook Login with Google

Why sign up and log in

Guitar Tabs Explorer
Dropkick Murphys tabs for Spicy mchaggis jig

Guitar tabs

intro

e-------------------------------------------------
b-------------------------------------------------
g-----------------10--8---------------------------
d---6/8-----------10--8---6-----------------------
a---6/8-----x4----8---6---6-----------------------
E---4/6-------------------4-----------------------
verse

e------------------------------------------------------------
b------------------------------------------------------------
g-----------------------88--8---------------------10--8------
d--88--8--66--6--88--8--88--8--88--8--66--6-------10--8---8--x2
a--88--8--66--6--88--8--66--6--88--8--66--6-------8---6---8--
E--66--6--44--4--66--6---------66--6--44--4---------------6--


chorus

e----------------------------------------------------------
b----------------------------------------------------------
g---------8888------------------------8888-----------------
d---8888--8888--8888--10101010--8888--8888--10101010--8888-x2
a---8888--6666--8888--8-8-8-8---8888--6666--8-8-8-8---8888-
E---6666--------6666------------6666------------------6666-

-the "spicy, spicy, spicy" part is just the intro then the chorus, its easy u can figure it out

-DROPKICK MURPHYS RULE
        -GUFFS

Other versions of Spicy Mchaggis Jig

Spicy mchaggis jigChords

Almost there ...

Sign in to get your own page with links to favourite songs and more. You are just one click away...

Login with Facebook Login with Google