Log in

One click and you are in

Login with Facebook Login with Google

Why sign up and log in

Guitar Tabs Explorer
Dropkick Murphys chords for Blood and whiskey

Blood And Whiskey chords by Dropkick Murphys

Dropkick Murphys chords for Blood and whiskey

Guitar chords

Blood and Whiskey - Dropkick Murphys

Tabbed by Priorystud@aol.com


Intro

e:--------------------------------------------------
B:--------------------------------------------------
G:-------5------------------------5-----------------
D:-3-3-2-5-----3-3-2-5------3-3-2-5-----3-3-2-5-----
A:-3-3-2-3-----3-3-2-5------3-3-2-3-----3-3-2-5-----
E:-1-1-0-------1-1-0-3------1-1-0-------1-1-0-3-----
Verse (1st and second verse follow same riff)

e:------------------------------------
B:------------------------------------
G:-5-5-5-5-5-5------------------------
D:-5-5-5-5-5-5-3-3-2-5-5-5-5-5-5-3-3-2    x4
A:-3-3-3-3-3-3-3-3-2-5-5-5-5-5-5-3-3-2
E:-------------1-1-0-3-3-3-3-3-3-1-1-0

First Chorus

e:--------------------------------------
B:--------------------------------------
G:-5-----------5-----------5------------
D:-5-----5-3-5-5-----5-3-5-5-----5-3---5
A:-3-----5-3-5-3-----5-3-5-3-----5-3---5
E:-------3-1-3-------3-1-3-------3-1---3

2nd Verse (see verse tab)

Second Chorus

e:--------------------------------------
B:--------------------------------------
G:-5-----------5-----------5------------
D:-5-----5-3-5-5-----5-3-5-5-----5-3---5
A:-3-----5-3-5-3-----5-3-5-3-----5-3---5
E:-------3-1-3-------3-1-3-------3-1---3

e:-------------------------------------------------------
B:-------------------------------------------------------
G:-5-----------5-----------5-------------------3-3-------
D:-5-----5-3-5-5-----5-3-5-5-----5-3---5-------3-3-5-----
A:-3-----5-3-5-3-----5-3-5-3-----5-3---5-------1-1-5-----
E:-------3-1-3-------3-1-3-------3-1---3-------1-1-3-----

e:-------------------------------
B:-------------------------------
G:-3-3-------3-3-------3-3-------
D:-3-3-5-----3-3-5-----3-3-5-----
A:-1-1-5-----1-1-5-----1-1-5-----
E:-1-1-3-----1-1-3-----1-1-3-----


Solo

e:-------------------------------
B:-4-4-3-3-1---4-4-3-3-1-3-8-8---
G:-----------3---------------7---
D:---------------------------9---
A:-------------------------------
E:-------------------------------

e:-----------------------------------------------------
B:---4-4-3-3-1---4-4-3-3-1-8-8--2b3.5-2b3.5-2b3.5-2b3.5
G:-------------3-------------7-------------------------
D:---------------------------9-------------------------
A:-----------------------------------------------------
E:-----------------------------------------------------

Play the tab for the first chorus twice to finish the song.

Almost there ...

Sign in to get your own page with links to favourite songs and more. You are just one click away...

Login with Facebook Login with Google