Log in

One click and you are in

Login with Facebook Login with Google

Why sign up and log in

Guitar Tabs Explorer
Dressy Bessy bass tabs for Just once more

Bass tabs

Dressy Bessy – Just Once More Bass Tab

Comments: This song is pretty easy, but it is quite fast. The site messed up my
formatting a bit, but hopefully it will be clear what I am trying to say.

Tabbed By: Utopia Complex
Intro
Rest 3 Measures, then come in with:

G|------------|--------------|--------------|--------------|------------|
D|------------|---7---4-5-4--|---7---4-5-4--|---9---7-5-4--|------------|
A|------------|5-------------|5-------------|5-------------|------------|
E|5--5--3-----|--------------|--------------|--------------|5--5--3-----|


Verse “My dear, I've painted a picture...”
G|----------------|----------------|----------------|--------------|
D|-----7---4-5-4--|-----7---4-5-4--|-----9---7-5-4--|--------------|
A|5---------------|5---------------|5---------------|--------------|
E|----------------|----------------|----------------|5--5--3-------|

G|----------------|----------------|----------------|--------------|
D|-----7---4-5-4--|-----7---4-5-4--|-----9---7-5-4--|--------------|
A|5---------------|5---------------|5---------------|--------------|
E|----------------|----------------|----------------|5--5--3-------|


Chorus “One more, there's room for, just one more.”
G|----------------|----------------|----------------|--------------|
D|-----7---4-5-4--|-----7---4-5-4--|-----7---4-5-4--|--------------|
A|5---------------|5---------------|5---------------|--------------|
E|----------------|----------------|----------------|5--5--3-------|

G|----------------|----------------|----------------|--------------|
D|-----7---4-5-4--|-----7---4-5-4--|-----7---4-5-4--|--------------|
A|5---------------|5---------------|5---------------|--------------|
E|----------------|----------------|----------------|5--5--3-------|


Verse x1


Chorus x1


Bridge A “It's just enough, but it goes on and on.”
G|----------------|----------------|----------------|----------------|
D|7-7-7-7-7--9--5-|-5-5-5-5-5-5-5--|7-7-7-7-7--9--5-|-5-5-5-5-5-5-5--|
A|----------------|----------------|----------------|----------------|
E|----------------|----------------|----------------|----------------|

G|----------------|----------------|----------------|----------------|
D|7-7-7-7-7--9--5-|-5-5-5-5-5-5-5--|7-7-7-7-7--9--5-|-5-5-5-5-5-5-5--|
A|----------------|----------------|----------------|----------------|
E|----------------|----------------|----------------|----------------|


Bridge B “It's too much, but oh well.”
G|----------------|----------------|----------------|----------------|
D|----------------|----------------|----------------|----------------|
A|5---5--5---7----|----------------|5---5--5---7----|----------------|
E|--------------5-|-5-5-5-5-5-5-5--|--------------5-|-5-5-5-5-5-5-5--|

G|----------------|----------------|----------------|----------------|
D|5-5-5-5-5-5-5-5-|7-7-7-7-7-7-7-7-|5-5-5-5-5-5-5-5-|7-7-7-7-7-7-7-7-|
A|----------------|----------------|----------------|----------------|
E|----------------|----------------|----------------|----------------|

“From what I can, what I can tell...”
G|----------------|----------------|----------------|----------------|
D|----------------|----------------|----------------|----------------|
A|5---5--5---7----|----------------|5---5--5---7----|----------------|
E|--------------5-|-5-5-5-5-5-5-5--|--------------5-|-5-5-5-5-5-5-5--|

G|--------------|--------------|--------------|--------------|--------------|
D|5-5-5-5-5-5-5-|7-7-7-7-7-7-7-|5-5-5-5-5-5-5-|7-7-7-7-7-7-7-|7-7-7-7-7-7-7-|
A|--------------|--------------|--------------|--------------|--------------|
E|--------------|--------------|--------------|--------------|--------------|


Chorus x2


Bridge A x2


Bridge B

Guitar Solo
G|----------------|----------------|----------------|----------------|
D|----------------|----------------|----------------|----------------|
A|5-5-5-5-5--7----|----------------|5-5-5-5-5--7----|----------------|
E|--------------5-|-5-5-5-5-5-5-5--|--------------5-|-5-5-5-5-5-5-5--|

G|----------------|----------------|----------------|----------------|
D|5-5-5-5-5-5-5-5-|7-7-7-7-7-7-7-7-|5-5-5-5-5-5-5-5-|7-7-7-7-7-7-7-7-|
A|----------------|----------------|----------------|----------------|
E|----------------|----------------|----------------|----------------|

G|----------------|----------------|----------------|----------------|
D|----------------|----------------|----------------|----------------|
A|5-5-5-5-5--7----|----------------|5-5-5-5-5--7----|----------------|
E|--------------5-|-5-5-5-5-5-5-5--|--------------5-|-5-5-5-5-5-5-5--|

G|--------------|--------------|--------------|--------------|--------------|
D|5-5-5-5-5-5-5-|7-7-7-7-7-7-7-|5-5-5-5-5-5-5-|7-7-7-7-7-7-7-|7-7-7-7-7-7-7-|
A|--------------|--------------|--------------|--------------|--------------|
E|--------------|--------------|--------------|--------------|--------------|


Ending
G|----------------|----------------|----------------|--------------|
D|-----7---4-5-4--|-----7---4-5-4--|-----7---4-5-4--|--------------|
A|5---------------|5---------------|5---------------|--------------|
E|----------------|----------------|----------------|5--5--3-------|

G|--------------|--------------|--------------|--------------|--------------|
D|---7---4-5-4--|---7---4-5-4--|---7---4-5-4--|--------------|--------------|
A|5-------------|5-------------|5-------------|--------------|5-(Let ring)--|
E|--------------|--------------|--------------|5--5--3-------|--------------|

| / slide up
| \ slide down
| h hammer-on
| p pull-off
| ~ vibrato
| + harmonic
| x Mute note

Almost there ...

Sign in to get your own page with links to favourite songs and more. You are just one click away...

Login with Facebook Login with Google