Log in

One click and you are in

Login with Facebook Login with Google

Why sign up and log in

Guitar Tabs Explorer
Dream (YouTuber) bass tabs for Mask

Bass tabs with lyrics

  • Difficulty: Beginner
Tuning: Standard (E A D G)

♫ Intro:
(Secure the bag, know what I mean? Banrisk on the beat)
(Ayo, Perish, this is hot, boy)
Verse 1:
I wear a mask with a smile for hours at a time
Stare at the ceiling while I hold back what's on my mind
And when they ask me how I'm doing
I say, "I'm just fine"
And when they ask me how I'm doing


I say, "I'm just fine"
But the fact is, I can never get off of my mattress
G|---------------------------------------------------------------|
D|---------------------------------------------------------------|
A|-------------------4-----4-4-----------------------------------|
E|-2-2/---6-----6-6-------------2-2-------2-2 -------------------|

And all that they can ask is
"Why are you so sad, kid " (Why are you so sad, kid)
G|---------------------------------------------------------------|
D|---------------------------------------------------------------|
A|-------------------4-----4-4-----------------------------------|
E|-2-2/---6-----6-6-------------2-2-------2-2 -------------------|

♫ Pre-Chorus:
That's what the mask is
That's what the point of the mask is
G|---------------------------------------------------------------|
D|---------------------------------------------------------------|
A|------------4-----4-4------------------------------------------|
E|-2/-6---6-6-------------2----2-2-------------------------------|

♫ Chorus:
So you can see I'm tryin'
You won't see me cryin'
I'll just keep on smilin', I'm good (Yeah, I'm good)
And it just keeps on pilin'
It's so terrifying
But I keep on smilin', I'm good (Yeah, I'm good)
I've been carin' too much for so long
Been comparin' myself for so long
Been wearin' a smile for so long, it's real
So long, it's rеal, so long, it's real
G|---------------------------------------------------------------|
D|---------------------------------------------------------------|
A|------------------4-4-4-4-4-4-4-4------------------------------| x4
E|-6-6-6-6-6-6-6-6------------------2-2-2-2-2-2-2-2-------(6)----|(played on last repeat)

♫ Verse 2:
Always bein' judged by a bunch of strangе faces
Scared to go outside, haven't seen the light in ages
But I've been places
So I'm okay-ish, so I'm okay-ish

Yeah, I'm okay, bitch
But the fact is
I need help, I'm failin' all my classes
G|---------------------------------------------------------------|
D|---------------------------------------------------------------|
A|-------------------------4-4--4-4-----------------------------|
E|-(2-2)--2--2/---6---6-6-------------2-2----2--2----------------|

They think that I need glasses
I just really wish that I could pass this (Wish that I could pass this)
G|---------------------------------------------------------------|
D|---------------------------------------------------------------|
A|-------------------------4-4---4-4-----------------------------|
E|-(2-2)--2--2/---6---6-6-------------2-2----2--2----------------|

♫ Pre-Chorus:
That's what the mask is
That's what the point of the mask is
G|---------------------------------------------------------------|
D|---------------------------------------------------------------|
A|-------------4-4---4-4-----------------------------------------|
E|2/-6---6-6--------------2-2------------------------------------|

♫ Chorus:
So you can see I'm tryin'
You won't see me cryin'
I'll just keep on smilin', I'm good (Yeah, I'm good)
And it just keeps on pilin'
It's so terrifying
But I keep on smilin', I'm good (Yeah, I'm good)
I've been carin' too much for so long
Been comparin' myself for so long
Been wearin' a smile for so long, it's real
So long, it's real, so long, it's real
G|---------------------------------------------------------------|
D|---------------------------------------------------------------|
A|------------------4-4-4-4-4-4-4-4------------------------------| x4
E|-6-6-6-6-6-6-6-6------------------2-2-2-2-2-2-2-2-------(6)----|(played on last repeat)

♫ Outro:
So long, it's real
So long, it's real
G|---------------------------------------------------------------|
D|-----------------------------------------------------------4---|
A|---------4---------------------------------------4-------------|
E|-6----------------2---------2---------6------------------------|


/ slide

Almost there ...

Sign in to get your own page with links to favourite songs and more. You are just one click away...

Login with Facebook Login with Google