Log in

One click and you are in

Login with Facebook Login with Google

Why sign up and log in

Guitar Tabs Explorer
Dream Theater tabs for Through her eyes

Guitar tabs

Through Her Eyes (Dream Theater)
Tabbed by: Roberto Ghizzi (r.ghizzi@aliaslab.net)
Chords based on: Pilpo  (pilpo@zipmail.com.br)
Last Update: 17/02/2002

During initial vocal orgasmic (!) solo
@0:12sec~
e----------------------------------------------------
B----/7--(dry)h10------------------------------------
G----------------------------------------------------

@0:24sec~
e----------------------------------------------------
B---7p5----/5h7--------------------------------------
G-------7--------------------------------------------
@0:28 sec~
e--/12----10-10-9-9----------------------------------
B--------------------/12-----------------------------
G----------------------------------------------------


@0:38 sec~
e--10-9----------------------------------------------
B-------12-10/12-------------------------------------
G----------------------------------------------------


@0:51 sec~ at the end (good compression here!)
e-/19--17--15----------------------------------------
B-------------19--15--17--19--15--17-----------------
G----------------------------------------------------
D----------------------------------------------------
A----------------------------------------------------
E----------------------------------------------------

A chord diagramG+G
She n...
A chord diagramD MajorD
On that f...
A chord diagramEm9Em9
Sacrificed w...
A chord diagramC9C9
A chord diagramA augmentedA victim of ...

A chord diagramG+G
Now that ....
A chord diagramD MajorD
And I've ...
A chord diagramEm9Em9
A chord diagramA augmentedA sadness ...
A chord diagramC9C9
It ...

A chord diagramE minorEm                                     A chord diagramD MajorD
I'm learning all about my life
                                       A chord diagramG+G
By looking through her eyes


FIRST SOLO @2:21
(a lot of feeling!)
e-----/7---7---5---3---3---5----7--------------------
B--3------------------------------5---8-7------------
G-----------------------------------------4/5---4h5p4
D----------------------------------------------------
A----------------------------------------------------
E----------------------------------------------------


A chord diagramG+G
Just beyond ...
A chord diagramD MajorD
Where the grass ...
A chord diagramEm9Em9
I saw ...
A chord diagramC9C9
I felt ...

A chord diagramG+G
In loving ...
A chord diagramD MajorD
So innocent ...
A chord diagramEm9Em9
I felt ...
A chord diagramC9C9
Like part ...

A chord diagramE minorEm                                    A chord diagramD MajorD
I'm learning all about my life
                                        A chord diagramA minorAm
By looking through her eyes


And as her image
A chord diagramC majorC
Wandered ...
A chord diagramG+G
I wept just ...
        A chord diagramD MajorD
As I lay ...

A chord diagramA minorAm
And I know ...
A chord diagramC majorC
To lose someone ...
         A chord diagramE minorEm                       A chord diagramD MajorD
And this felt just the same

A chord diagramG+G
She wasn't ...
A chord diagramD MajorD
Desperation stole ...
A chord diagramEm9Em9
I've been given so much ...
A chord diagramC9C9
I've got a son, I've got a wife

A chord diagramG+G
I had to suffer ...
A chord diagramD MajorD
To grieve for her ...
A chord diagramEm9Em9
Relive the anguish ...
A chord diagramC9C9
To find out who ...

A chord diagramE minorEm                              A chord diagramD MajorD
The door has opened wide
                                 A chord diagramC majorC
I'm turning with the tide
A chord diagramA minorAm                              A chord diagramG+G             A chord diagramD MajorD            A chord diagramEm9Em9
A chord diagramC9C9
Looking through her eyes.


SECOND SOLO @4:40
(a lot of feeling as USUAL!)
e-----/7---7---5---3---3---5----7-----------------z---
B--3------------------------------5---8-7-----------3-
G-----------------------------------------4/5---4h5---
D-----------------------------------------------------
A-----------------------------------------------------
E-----------------------------------------------------

e-7---7h8-7--5--/10--8-7----------------7-------------
B-------------------------10-10--8-8-10---7h8p5------3
G----------------------------------------------4h5----
D-----------------------------------------------------
A-----------------------------------------------------
E-----------------------------------------------------

Other versions of Through Her Eyes

Through her eyesChords

Almost there ...

Sign in to get your own page with links to favourite songs and more. You are just one click away...

Login with Facebook Login with Google