Log in

One click and you are in

Login with Facebook Login with Google

Why sign up and log in

Guitar Tabs Explorer
Dream Theater tabs for Home

Guitar tabs

Drop A chord diagramD MajorD on 6th string

-------------------------------------------
-------------------------------------------
---0-0-0-0-0-0-0-0-0-0-0-0-0-0-0-0-3-3-3-3-
-------------------------------------------
-------------------------------------------
----0-0-0-0-0-0-0-0-0-0-0-0-0-0-0-0-0-0-0-0
(cont)
-------------------------------------------
-------------------------------------------
-------------------------------------------
2-2-2-2-5-5-5-5-3-3-3-3-7-7-7-7-5-5-5-5-8-8
-------------------------------------------
-------------------------------------------
-0-0-0-0-0-0-0-0-0-0-0-0-0-0-0-0-0-0-0-0-0-


(cont)
--------------0----------------------------
-------------10----------------------------
--------------9----------------------------
-8-8-7-7-7-7--0----------------------------
--------------0----------------------------
0-0-0-0-0-0---0----------------------------

thats the very beginning, ill submit more later, its a 13 minute song :P

ⓘ Guitar tab for 'Home' by Dream Theater, a progressive metal band formed in 1986 from Massachusetts, USA

Almost there ...

Sign in to get your own page with links to favourite songs and more. You are just one click away...

Login with Facebook Login with Google