Log in

One click and you are in

Login with Facebook Login with Google

Why sign up and log in

Guitar Tabs Explorer
Dream Theater bass tabs for Hells kitchen

Bass tabs with lyrics

This is "Hell's Kitchen" by Dream Theater from the album "Falling Into
Infinity

I transcribed and submitted it.

Mark Kemp

Sunnyde25@aol.com
					Hells Kitchen
Listen to the CD for exact rythms. I didn't write out every note because
most hits are with the bass drum and Myung stays mainly on the root of
each cord. I did write out where he does vary from the root.

This is my first time using this tabulature sofware, so I am
sure this does not look like normal tab. Time signatures are noted
by two numbers separated by a /. The tab starts at :34 of the song.
Notes at the very begining are Bb, Ab, D, E then Bb, Gb, E.

Most of the time Myung playes the lowest note possible like and open E or
a F# on the second fret. The bass part is not difficult except for
the sixteenth note stuff before the big fill in the middle. Have fun!

Mark Kemp
sunnyde25@Aol.com or sunnydee25@Juno.com
Please E-mail me with corrections


				      3 times
                 --------  (1:10)
  F# F#  D  D  E  E  E  E  | F#  F# D  D  E  E  E
G:----|----|----|----|----|----|----|----||----|---|---|---|---|---|--|
D:6---|----|----|----|----|----|----|---.||----|---|---|---|---|---|--|
A:/---|----|----|----|----|----|----|---.||----|---|---|---|---|---|--|
E:8---|----|----|----|----|----|----|----||----|---|---|---|---|---|--|

 2 times                  2 times
  E  | F#  F#  D   D   E  E  E   E  | F#  F# D D  |
G:-----|-----|----|----|-----|-----|----|----|----||------|---|--|---|
D:5---.|6----|----|----|5----|6----|----|----|5--.||6-----|---|--|---|
A:/---.|/----|----|----|/----|/----|----|----|/--.||/-----|---|--|---|
E:8----|8----|----|----|8----|8----|----|----|8---||8-----|---|--|---|

(2:00)

 A  A  A  A   A A A  A  G  G  A  A  | E  E
G:----|----|----|------|--|--|---|--|-----|----|----|----||-----|----|
D:----|----|----|----57|--|--|---|--|5----|----|----|----||.----|----|
A:----|----|----|------|--|--|---|--|/----|----|----|----||.----|----|
E:----|----|----|5--5--|--|--|---|--|8----|----|----|----||-----|----|
                                |


          2 times
          ------|
 E  E F#  F# D D  | (2:38)
G:---|--|----|--|--|----||----2-4-2-|----2-4-2-|----2-4-2-|------2-4-|
D:---|--|----|--|--|---.||--2-------|--2-------|--2-------|4---2-----|
A:---|--|----|--|--|---.||----------|----------|----------|/---------|
E:---|--|----|--|--|----||0---------|0---------|0---------|8-0-------|
                |




							   Keyboard enters
                        |
G:------2-4-2-|----2-4-2-|------9---|------9---||-------2-4-2---4-|
D:5---2-------|--2-------|--7-9---9-|--7-9---9-||.7---2-------2---|
A:/-----------|----------|5---------|5---------||./---------------|
E:8-2---------|2---------|----------|----------||-8-0-------------|
                        |


                    2 times   (I'm not sure
                    ---------  about these four)
                        |E  E  E  E
G:----2-4-2---4-|----2-4-2---4-|------9-------||----|----|----|----|
D:--2-------2---|--2-------2---|--7-9---9-7--.||----|----|----|----|
A:--------------|--------------|5-----------5.||----|----|----|----|
E:0-------------|2-------------|--------------||----|----|----|----|
                        |



these are sixteenth notes

G:----------------7--6-------|--------7-------------------|
D:----7---7-9-5-7--7---7-6---|----6-7---7-6-7-6---7---7-9-|
A:5-7---7------------------7-|5-7---------------7---7-----|
E:---------------------------|----------------------------|


                  (3:18) E  E F#  F#  Eb Eb
G:----------------7---6-------|-Big Fill-|-----|--|---|-----|----|---|
D:----7---7-9-5-7---7---7-6---|----------|6----|--|---|4----|6---|---|
A:5-7---7-------------------7-|-I wimped |/----|--|---|/----|/---|---|
E:----------------------------|----out---|8----|--|---|8----|8---|---|


 F  F   E   E   F# F#  Eb  Eb  E  E
G:----|-----|------|----|----|----|-----|----|---|----|--------4-6-|
D:----|4----|6-----|----|4---|----|6----|----|---|----|------------|
A:----|/----|/-----|----|/---|----|/----|----|---|----|4-----4-----|
E:----|8----|8-----|----|8---|----|8----|----|---|----|------------|


        C C  B     B     A  A  C  C  D
G:--------4-6-|--|----|------2-4-|------2-4-|----|----|----|----|--|
D:------------|--|----|----------|----------|----|----|----|----|--|
A:4-----4-----|--|----|2---------|2---------|----|----|----|----|--|
E:------------|--|----|----------|----------|----|----|----|----|--|


  D   C   C  D   D   C  C  D  D (hold untill end)
G:-----|------|----|----|-----|-----|----|----|----|
D:4----|6-----|----|----|4----|6----|----|----|----|
A:/----|/-----|----|----|/----|/----|----|----|----|
E:8----|8-----|----|----|8----|8----|----|----|----|
ⓘ Bass guitar tab for 'Hells Kitchen' by Dream Theater, a progressive metal band formed in 1986 from Massachusetts, USA

Almost there ...

Sign in to get your own page with links to favourite songs and more. You are just one click away...

Login with Facebook Login with Google