Log in

One click and you are in

Login with Facebook Login with Google

Why sign up and log in

Guitar Tabs Explorer
Nick Drake tabs for River man

Guitar tabs

contributed by members of the Nick Drake Mailing List
Steve Dondershine <steved@ti.com>
Harlan Thompson <harlant@hawaii.edu>
Bike <bike@xs4all.nl>
Mike Healey <michael.healey@balliol.ox.ac.uk>
Tuning: Standard (capo III)
Timing: 5/4
Transcriber: Phil Champ


Intro
Verses 1-3 (ending 1)

Verse 4 (ending 2)
Interlude
Verses 5-7 (ending 1)

Verse 8 (ending 2)

Outro

A chord diagramA augmentedA belated nod to Chris Healey, whose tab I only discovered when I'd
nearly finished this one (and part of which I have used here).
Every note, variation and mistake carefully tabbed, Chris!


<Intro>


A chord diagramE MajorE||-------------------------0-----|-----------------------0-------|
A chord diagramBB||-----2------2------------2-----|-----2-----0-----------2-------|
A chord diagramG+G||-----2------2------------2-----|-----2-----2-----------2-------|
A chord diagramD MajorD||----------------2-----------2--|--------------2-----------2----|
A chord diagramA augmentedA||-----0------0------------0-----|-----0-----0-----------0-------|
A chord diagramE MajorE||--0------0---------0--0--------|--0-----0--------0--0----------|


|-----------------------0-------|-----------------------0-------|
|-----2-----2-----------0-------|-----2-----2-----------0-------|
|-----2-----2-----------2-------|-----2-----2-----------2-------|
|--------------2-----------2----|--------------2-----------2----|
|-----0-----0-----------0-------|-----0-----0-----------0-------|
|--0-----0--------0--0----------|--0-----0--------0--0----------|


<Verse>


|-----------------------0-------|-----------------------0-------|
|-----1-----1-----------1-------|-----1-----0-----------1-------|
|-----2-----2-----------2-------|-----2-----2-----------2-------|
|--------------2-----------2----|--------------2-----------2----|
|-----0-----0-----------0-------|-----0-----0-----------0-------|
|--0-----0--------0--0----------|--0-----0--------0--0----------|


|-----------------------------|-------------------------------|
|-----3-----3----------3------|-----3------3------3-----0-----|
|-----3-----3----------3------|-----3------3------3-----0-----|
|--------------0--------------|---------------0---------------|
|-----3-----3----------3------|-----3------3------------0-----|
|--3-----3--------3-----------|--3------3---------3--0-----0--|


|-----------------------------|-------------------------------|
|-----1-----1----------1------|-----1-----1-----------1-------|
|-----2-----2----------2------|-----2-----2-----------2-------|
|--------------2--------------|--------------2-----------2----|
|-----3-----3----------3------|-----3-----3-----------3-------|
|--1-----1--------1-----------|--1-----1--------1--1----------|


 1.


|-----------------------0-------|-----------------------0--------|
|-----2-----2-----------0-------|-----2-----2-----------0--------|
|-----2-----2-----------2-------|-----2-----2-----------2--------|
|--------------2-----------2----|--------------2-----------2-----|
|-----0-----0-----------0-------|-----0-----0-----------0--------|
|--0-----0--------0--0----------|--0-----0--------0--0-----------|


 2.

                                                                    3x
||---------------------------------||-------------------------------||
||------4-----4-----------4--------||-----4-----4-----------0-------||
||*-----2-----2-----------2-------*||-----2-----2-----------2-------||
||*--------------2-----------2----*||--------------2-----------2----||
||------0-----0-----------0--------||-----0-----0-----------0-------||
||---0-----0--------0--0-----------||--0-----0--------0--0----------||


<Interlude>


||--------------------------------|-------------------------------|
||------1-----0-----------0-------|-----1-----0-----------0-------|
||*-----2-----2-----------2-------|-----2-----2-----------2-------|
||*--------------2-----------2----|--------------2-----------2----|
||------3-----3-----------3-------|-----3-----3-----------3-------|
||---1-----1--------1--1----------|--1-----1--------1--1----------|


|--------------------------------|-----------------------0-------|
|------1-----0-----------0-------|-----2-----2-----------2-------|
|------2-----2-----------2-------|-----2-----2-----------2-------|
|---------------2-----------2----|--------------2-----------2----|
|------3-----3-----------3-------|-----0-----0-----------0-------|
|---1-----1--------1--1----------|--0-----0--------0--0----------|


|-----------------------0--------||-----------------------0-------|
|-----2-----2-----------2--------||-----2-----2-----------2-------|
|-----2-----2-----------2-------*||-----2-----2-----------2-------|
|--------------2-----------2----*||--------------2-----------2----|
|-----0-----0-----------0--------||-----0-----0-----------0-------|
|--0-----0--------0--0-----------||--0-----0--------0--0----------|


|-----------------------0-------|
|-----2-----2-----------2-------|
|-----2-----2-----------2-------|
|--------------2-----------2----|
|-----0-----0-----------0-------|
|--0-----0--------0--0----------|


<Outro>
                                                                 3x
||--------------------------------|------------------------------||
||------2-----2-----------2-------|-----2-----2----------2-------||
||*-----0-----0-----------0-------|-----0-----0----------0------*||
||*--------------4-----------4----|--------------4--------------*||
||------0-----0-----------0-------|-----0-----0----------0-------||
||---0-----0--------0--0----------|--0-----0--------0------------||


|-------------------------------|-----------------------------|
|-----1-----1-----------1-------|-----1-----1----------1------|
|-----0-----0-----------0-------|-----0-----0----------0------|
|--------------4-----------4----|--------------4--------------|
|-----0-----0-----------0-------|-----0-----0----------0------|
|--0-----0--------0--0----------|--0-----0--------0-----------|


                                   3x
||---------------------------------||-------------------------------|
||------2-----2-----------4--------||-----4-----4-----------2-------|
||*-----0-----0-----------0-------*||-----0-----0-----------0-------|
||*--------------2-----------2----*||--------------2-----------2----|
||------0-----0-----------0--------||-----0-----0-----------0-------|
||---0-----0--------0--0-----------||--0-----0--------0--0----------|

Other versions of River Man

River manChords

Almost there ...

Sign in to get your own page with links to favourite songs and more. You are just one click away...

Login with Facebook Login with Google