Log in

One click and you are in

Login with Facebook Login with Google

Why sign up and log in

Guitar Tabs Explorer
Drake Bell guitar chords for See you again

Guitar chords with lyrics

Tuning: A chord diagramE MajorE


 CHORDS USED IN ORDER OF FIRST APPEARANCE::
     E*  E/D#  A chord diagramA majorA    A chord diagramE MajorE    A*  A chord diagramF#m11F#m11  A chord diagramC# minorC#m   B*  A chord diagramG#m11G#m11  A chord diagramG# minorG#m   A chord diagramBB   A chord diagramC#5C#5  A chord diagramG#5G#5   A chord diagramA5A5   A chord diagramC5C5   A chord diagramD5D5
e]-------------x----0----0-----0-----4----x-----0-----4----7----x----x----x----x----x----|
B]---0----0----0----0----2-----0-----5----x-----0-----4----7----x----x----x----0----0----|
G]---9----9----6----1----2-----2-----6----4-----4-----4----8----6----x----x----5----7----|
D]---9----7----7----2----2-----4-----6----4-----6-----6----9----6----6----7----5----7----|
A]---7----6----7----2----0-----4-----4----2-----6-----6----9----4----6----7----3----5----|
E]---x----x----5----0---------(2)----x----x----(4)----4----7----x----4----5----x----x----|

 INTRO:

  // A chord diagramE MajorE /// E/D# //// A chord diagramC#5C#5 //// A chord diagramA majorA /// A chord diagramBB /// A chord diagramC#5C#5 /// A chord diagramE MajorE //


(3x)
        E*         E/D#           A chord diagramC#5C#5                A chord diagramA majorA      A chord diagramBB  A chord diagramC#5C#5   E*     E*
e]---0-----0----0----0------0---------0-----0----------0--------0------0-|----------|
B]-----0---------------0-----------------------0---------0--0------------|--0-------|
G]-------9---9-----8------8-----8--6-----6-------6/2-2------4---6----9---|--9-------|
D]-----------------------------------------------------------------------|--9-------|
A]-----------------------------------------------------------------------|--7-------|
E]-----------------------------------------------------------------------|--x-------|



Verse 1:

E*
I kiss your eyes
 E/D#
I say goodnight

A chord diagramA majorA                        E**
I love is pouring out to you


Verse 2:
E*
I feel you cry
 E/D#
It's not goodbye

A chord diagramA majorA                         E**
I'm only leaving for some time



Chorus 1:

A chord diagramE MajorE                 A*
Know I'll see you again
A chord diagramF#m11F#m11                      A chord diagramC# minorC#m     B* A*
Don't forget I'm your best friend
A chord diagramE MajorE                 A*
Know I'll see you again
A chord diagramF#m11F#m11        A chord diagramG#m11G#m11                  (A chord diagramA majorA)
So let me go 'cause this is not the end


Transition 1:

      A chord diagramA majorA     A chord diagramG# minorG#m    A chord diagramA majorA       A chord diagramA majorA      A chord diagramC# minorC#m     A chord diagramBB
e]----5------4-----x---|---5-------4------7-----|
B]----5------4-----5---|---5-------5------7-----|
G]----6------4-----6---|---6-------6------8-----|
D]----7------6-----7---|---7-------6------9-----|
A]----7------6-----7---|---7-------4------9-----|
E]----5------4-----5---|---5-------x------7-----|



Verse 3:

E*
I feel you breathe
 E/D#
You mean so much to me

A chord diagramA majorA                                    E*
I mean you make me feel like so much more



Verse 4:

E*
Don't look away this time
 E/D#
Don't be afraid when I'm

A chord diagramA majorA                                E*
Just trying to say what I didn't before



Chorus 2:

A chord diagramE MajorE                 A*
Know I'll see you again
A chord diagramF#m11F#m11                      A chord diagramC# minorC#m     B* A*
Don't forget I'm your best friend
A chord diagramE MajorE                 A*
Know I'll see you again
A chord diagramF#m11F#m11        A chord diagramG#m11G#m11                  (A chord diagramA majorA)
So let me go 'cause this is not the end


Transition 2:

      A chord diagramA majorA     A chord diagramG# minorG#m    A chord diagramA majorA       A chord diagramA majorA      A chord diagramC# minorC#m     A chord diagramBB
e]----5------4-----x---|---5-------4------7-----|
B]----5------4-----5---|---5-------5------7-----|
G]----6------4-----6---|---6-------6------8-----|
D]----7------6-----7---|---7-------6------9-----|
A]----7------6-----7---|---7-------4------9-----|
E]----5------4-----5---|---5-------x------7-----|


Bridge:

 A chord diagramC#5C#5     A chord diagramG#5G#5     A chord diagramA5A5
          Is it not fair

 A chord diagramC#5C#5     A chord diagramG#5G#5     A chord diagramA5A5           A chord diagramF#m11F#m11       A chord diagramG#m11G#m11
          To let me   fly

                  (A chord diagramA majorA)
                Awhile


Interlude 1:
      A chord diagramA majorA     A chord diagramG# minorG#m    A chord diagramA majorA
e]----5------4-----x---|
B]----5------4-----5---|
G]----6------4-----6---|
D]----7------6-----7---|
A]----7------6-----7---|
E]----5------4-----5---|


Chorus 3:

A chord diagramE MajorE                 A*
Know I'll see you again
A chord diagramF#m11F#m11                      A chord diagramC# minorC#m     B* A*
Don't forget I'm your best friend
A chord diagramE MajorE                 A*
Know I'll see you again
A chord diagramF#m11F#m11        A chord diagramG#m11G#m11                  (A chord diagramA majorA)
So let me go 'cause this is not the end


 Interlude 2:

      A chord diagramA majorA     A chord diagramG# minorG#m    A chord diagramA majorA       A chord diagramA majorA      A chord diagramC# minorC#m    Am7m
e]----5------4-----x----|--5-------4------x----------|
B]----5------4-----5----|--5-------5------5----------|
G]----6------4-----6----|--6-------6------5----------|
D]----7------6-----7----|--7-------6------6----------|
A]----7------6-----7----|--7-------4------7----------|
E]----5------4-----5----|--5-------x------5----------|



Outro:
    A chord diagramC5C5      A chord diagramD5D5   E*
e]---x------x----x------|
B]---0------0----0------|
G]---5------7----9------|
D]---5------7----9------|
A]---3------5----7------|
E]---x------x----x------|

Almost there ...

Sign in to get your own page with links to favourite songs and more. You are just one click away...

Login with Facebook Login with Google