Theme by Dragonballz

Theme tab by Dragonballz

Guitar tabs

1:---------------------------------
2:---------------------------------
3:-----5-5--------------------------
4:-----5-5--------------------------
5:-----3-3--------------------------
6:----------------------------------

Verse Riff A
W/distortion and octave pedal
1:--------------------------------------------------------------------
2:--------------------------------------------------------------------
3:----------------------------(bend)----------------------------------
4:-------------------------------5------------------------------------
5:----7---7--------5----7-----------5------------7---7-----5----7-
6:--------------------------------------------------------------------

Verse Riff B

1:--------------------------------------------------------------------
2:--------------------------------------------------------------------
3:-----------------------------------(bend)---------------------------
4:--------------------------------------5-----------------------------
5:----7--7----5----7/5--5/7-------5------7---7-----5----7-
6:--------------------------------------------------------------------

Chorus (this part you strum real fast, like that
pulp fiction song)
Played w/slight dist. and reverb
1:--------------------------------------------------------------------
2:--------------------------------------------------------------------
3:--------------------------------------------------------------------
4:----8-8-8-8-11-11-11-11-10-10-10-10-7-7-7-7-------------------------
5:--------------------------------------------------------------------
6:--------------------------------------------------------------------

1:--------------------------------------------------------------------
2:--------------------------------------------------------------------
3:--------------------------------------------------------------------
4:----8-8-8-8-14-14-14-14-13-13-13-13-10-10-10-10---------------------
5:--------------------------------------------------------------------
6:--------------------------------------------------------------------

1:--------------------------------------------------------------------
2:--------------------------------------------------------------------
3:--------------------------------------------------------------------
4:----8-8-8-8-11-11-11-11-10-10-10-10-7-7-7-7-------------------------
5:--------------------------------------------------------------------
6:--------------------------------------------------------------------

1:--------------------------------------------------------------------
2:--------------------------------------------------------------------
3:--------------------------------------------------------------------
4:----8-8-8-8-11-11-11-11-12-12-12-12-14-14-14-14---------------------
5:--------------------------------------------------------------------
6:--------------------------------------------------------------------

1:--------------------------------------------------------------------
2:--------------------------------------------------------------------
3:----13-13-13-13-16-16-16-16---17-17-17-17---19-19-19-19-------------
4:--------------------------------------------------------------------
5:--------------------------------------------------------------------
6:--------------------------------------------------------------------

Find guitar tabs and chords

A B C D E F G H I J K L M N O P Q R S T U V W X Y Z #