Rock The Dragon by Dragonballz

Rock The Dragon tab by Dragonballz

Guitar tabs

The american DBZ theme (a.k.a. rock the dragon) tabbed by
Dan Legge (misterpiccolo@netfreemail.com) I'm not sure who wrote it.
*tuned just a flat of concert pitch

Intro fade in (w/volume pedal and distortion)
1:---------------------------------
2:---------------------------------
3:-----5---------------------------
4:-----5---------------------------
5:-----3---------------------------
6:----------------------------------

Verse Riff A
W/distortion and octave pedal
1:--------------------------------------------------------------------
2:--------------------------------------------------------------------
3:----------------------------(bend)----------------------------------
4:-------------------------------5------------------------------------
5:----7---7--------5----7-----------5------------7---7-----5----7-
6:--------------------------------------------------------------------

Verse Riff B

1:--------------------------------------------------------------------
2:--------------------------------------------------------------------
3:-----------------------------------(bend)---------------------------
4:--------------------------------------5-----------------------------
5:----7--7----5----7/5--5/7-------5------7---7-----5----7-
6:--------------------------------------------------------------------

Chorus (this part you strum real fast, like that
pulp fiction song)
Played w/slight dist. and reverb
1:--------------------------------------------------------------------
2:--------------------------------------------------------------------
3:--------------------------------------------------------------------
4:----8-8-8-8-11-11-11-11-10-10-10-10-7-7-7-7-------------------------
5:--------------------------------------------------------------------
6:--------------------------------------------------------------------

1:--------------------------------------------------------------------
2:--------------------------------------------------------------------
3:--------------------------------------------------------------------
4:----8-8-8-8-14-14-14-14-13-13-13-13-10-10-10-10---------------------
5:--------------------------------------------------------------------
6:--------------------------------------------------------------------

1:--------------------------------------------------------------------
2:--------------------------------------------------------------------
3:--------------------------------------------------------------------
4:----8-8-8-8-11-11-11-11-10-10-10-10-7-7-7-7-------------------------
5:--------------------------------------------------------------------
6:--------------------------------------------------------------------

1:--------------------------------------------------------------------
2:--------------------------------------------------------------------
3:--------------------------------------------------------------------
4:----8-8-8-8-11-11-11-11-12-12-12-12-14-14-14-14---------------------
5:--------------------------------------------------------------------
6:--------------------------------------------------------------------

1:--------------------------------------------------------------------
2:--------------------------------------------------------------------
3:----13-13-13-13-16-16-16-16---17-17-17-17---19-19-19-19-------------
4:--------------------------------------------------------------------
5:--------------------------------------------------------------------
6:--------------------------------------------------------------------

 Note: I have not been able to find any tabs or midi for this song, so
I decided to take a shot at trying to decipher it, and I realize there
are probably flaws. I spent maybe 10 minutes playing my guitar with a
recording of the real song, hence that being the method of how I got this
all tabbed..the hard way...
  I made a midi of it too, it's pretty alright if you are interested,
e-mail me. (Misterpiccolo@netfreemail.com or Balzac@bellsouth.net)

    created 03-29-01

Find guitar tabs and chords

A B C D E F G H I J K L M N O P Q R S T U V W X Y Z #