Log in

One click and you are in

Login with Facebook Login with Google

Why sign up and log in

Guitar Tabs Explorer
Dr. Dog guitar tabs for Whered all the time go

Guitar tabs

Tuning: Drop A chord diagramD MajorD (A chord diagramD MajorD A chord diagramA majorA A chord diagramD MajorD A chord diagramG MajorG A chord diagramBB A chord diagramE MajorE)

Where'd All The Time Go - Complete Tab


Tuning: Drop-D

Effects: Fuzz

Chords:

     A chord diagramD MajorD   A chord diagramG MajorG   A chord diagramE minorEm  A chord diagramA majorA   A chord diagramF# minorF#m A chord diagramB minorBm
e|---2---3---0---0---2---2---|
B|---3---3---0---2---2---3---|
G|---2---0---0---2---2---4---|
D|---0---0---2---2---4---4---|
A|---x---2---2---0---4---2---|
D|---x---x---2---x---4---x---|


Verse: D, G, D, G, Em, A, A chord diagramD MajorD

Chorus: Em, A, G, F#m, Bm: x3, G, A, A chord diagramD MajorD

Structure: Verse, Verse, Chorus, Verse, Chorus, Solo


Solo:

e|-------|----------|------|---10---8---7--------|----------|----------|
B|-6~-8~-|-6-8h10p8-|------|----------------10---|-8-7------|----------|
G|-------|----------|-7-7~-|-7----7---7---7----7-|-----10-7-|-7-6------|
D|-------|----------|------|---------------------|----------|-----10-7-|
A|-------|----------|------|---------------------|----------|----------|
D|-------|----------|------|---------------------|----------|----------|

e|--------------------------------------------------------------|
B|--------------------------------------------------------------|
G|--------------------------------------------------------------|
D|---------9-----10------12-------14-------15-------17-------19-|
A|-5---5/7---7/9----9/10----10/12----12/14----14/15----15/17----|
D|--------------------------------------------------------------|

e|-17-|    |-------------------|    |----|
B|-19-|    |-------------------|    |----|
G|-19-|    |-------------------|    |----|
D|-19-| x8 |---------------7h9-| x5 |----|
A|-17-|    |-5---5---5---7h9---|    |-5\-|
D|----|    |-0---0---0---------|    |-0--|


************************************

| x  Dead note
| h  Hammer-on
| p  Pull-off
| ~  Vibrato
| /  Slide up
| \  Slide down


************************************

↓ Add and view comments below ↓

What do you think about this song and these tabs?

Add your comments, questions, rant or a thumbs up below.

Almost there ...

Sign in to get your own page with links to favourite songs and more. You are just one click away...

Login with Facebook Login with Google