Log in

One click and you are in

Login with Facebook Login with Google

Why sign up and log in

Guitar Tabs Explorer
Dr Sin tabs for Karma

Guitar tabs

Tom: A chord diagramE MajorE


(Solo)
A chord diagramE MajorE||--------------------------------------------------------------------|
A chord diagramBB||--------------------------------------------------------------------|
A chord diagramG+G||------------------------20t9-11-14------------20t9-11-14------------|
A chord diagramD MajorD||-------------20t9-11-14------------20t9-11-14------------20t9-11-14-|
A chord diagramA augmentedA||--19t9-12-14--------------------------------------------------------|
A chord diagramE MajorE||--------------------------------------------------------------------|
-------------------------------------------------------------|
-------------------------------------------------------------|
------------------------20t9-11-14------------20t9-11-14-----|
-------------20t9-11-14------------20t9-11-14----------------|
--19t9-12-14-------------------------------------------------|
-------------------------------------------------------------|


--------14----------14------------------|--------------------------|
-----------14-17-------14-17---14-------|--------------------------|
--16------------------------------14----|---------------2-2--------|
-------------------------------------16/|--4----4-2---------4------|
----------------------------------------|-----------4-4------------|
----------------------------------------|--------------------------|


----------2---------------------|--------------------------------------|
----------2----------4-4-2/17---|--17----------------------------------|
-------------4-4-2---4-4-2------|------17-16-14------16--14---14-------|
--4-4-4-4----------4------------|----------------16--------------16----|
--------------------------------|--------------------------------------|
--------------------------------|--------------------------------------|


------18h19h18-14-------------14--------|------------------------------------|
------------------14-------14-----17----|------------------------------------|
---------------------15-16--------------|--------16-16-14--------------------|
--16------------------------------------|-----------------16-14--------------|
----------------------------------------|-----------------------14-14-14-12--|
----------------------------------------|------------------------------------|


t = tapping
h = hammer-on
/ = slide

Almost there ...

Sign in to get your own page with links to favourite songs and more. You are just one click away...

Login with Facebook Login with Google