Thanks For Nothing by The Downtown Fiction

Thanks For Nothing tab by The Downtown Fiction

Guitar tabs

Tuning: Standard (E A D G B E)

Key: F

Difficulty: Intermediate

-----------------------------------------------------------------------------
           THANKS FOR NOTHING - The Downtown Fiction
-----------------------------------------------------------------------------

Here's my cover on YouTube!: https://www.youtube.com/watch?v=mnvzrZEbaNE

Guitar 1 - Cameron Leahy
Guitar 2 - Wes Dimond

Intro (guitar 2 only):
e|-13-13-----13-13-13---13-12-12-----12-12-12---12-0--0-----0--0--0----0--10-10----10-10-10---13--|
B|-13-13-----13-13-13---13-13-13-----13-13-13---13-10-10----10-10-10---10-12-12----12-12-12---13--|
G|------------------------------------------------------------------------------------------------|
D|------------------------------------------------------------------------------------------------|
A|------------------------------------------------------------------------------------------------|
E|------------------------------------------------------------------------------------------------|

e|-13-13-----13-13-13---13-12-12-----12-12-12---12-10-10----10-10-10---10-10-10-10-10-10------|
B|-13-13-----13-13-13---13-13-13-----13-13-13---13-12-12----12-12-12---12-12-12-12-12-12------|
G|--------------------------------------------------------------------------------------------|
D|--------------------------------------------------------------------------------------------|
A|--------------------------------------------------------------------------------------------|
E|--------------------------------------------------------------------------------------------|

Verse:

Guitar 1
e|-------------------------------------------------------------------------|
B|-------------------------------------------------------------------------|
G|-10-10---10------------------4-4-4---4/10-10---10------------4-4---4-4-4-|
D|-10-10---10-10-10---10-7-7---5-5-5---5/10-10---10-10-10---10-5-5---5-5-5-|
A|-8--8----8--10-10---10-7-7---5-5-5---5/8--8----8--10-10---10-5-5---5-5-5-|
E|------------8--8----8--5-5---3-3-3---3/-----------8--8----8--3-3---3-3-3-|

e|----------------------------||------------------------------2x-|-----------------------------|
B|-----5-5-5---1-1-1----------||---10-10---5-5-5---1-1-1---------|-----------------------------|
G|-------------2-2-2---4-4-4--||-4/----------------2-2-2---4-4-4-|-4---------------------------|
D|-3\--5-5-5---2-2-2---5-5-5--||-5/10-10---5-5-5---2-2-2---5-5-5-|-5---------5-5-5-5---------5-|
A|-3\--3-3-3---0-0-0---5-5-5--||-5/8--8----3-3-3---0-0-0---5-5-5-|-5-3-3-3-3-3-3-3-3-5-5-5-5-5-|
E|-1\------------------3-3-3--||-3/------------------------3-3-3-|-3-1-1-1-1---------3-3-3-3-3-|
                                   * * * * * * * * * * * *
Guitar 2
e|----------------------------------------------------------------------------------------------------|
B|----------------------------------------------------------------------------------------------------|
G|-14-14----14-12-12----12-12-12---12-12-12---------------10-10---5-5-5---2-2-2-----------------------|
D|-------------------------------------------(silence)--5/10-10---5-5-5---2-2-2---5-5-5---5-(silence)-|
A|-12-12----12-10-10----10-10-10---10-10-10-------------5/8--8----3-3-3---0-0-0---5-5-5---5-----------|
E|------------------------------------------------------3/------------------------3-3-3---3-----------|

Chorus:

Guitar 2
e|---------------------------------------------|------|
B|---------------------------------------------|------|
G|-------5------------------------5------------|------|
D|-3-----5--x8-7--x8-5------3-----5--x8-5------|-5----|
A|-3--x8-3-----7-----5--x8--3--x8-3-----5--x16-|-5----|
E|-1-----------5-----3------1-----------3------|-3----|

Guitar 2
e|----------------------2x-|------|
B|-13----------------12----|-12---|
G|-----x24--------------x8-|------|
D|-10----------------9-----|-9----|
A|-------------------------|------|
E|-------------------------|------|

Verse 2:

Guitar 1
e|-----------------------------------------------------------------------|--------------------------------3x-|
B|-----------------------------------------------------------------------|-10-10---10-8--8----8--------------|
G|-10-10---10-----------------4-4-4---4/10-10---10-----------4-4---4-4-4-|------------9--9----9--5-5---4-4-4-|
D|-10-10---1010-10---10-7-7---5-5-5---5/10-10---1010-10---10-5-5---5-5-5-|-10-10---10-10-10---10-7-7---5-5-5-|
A|-8--8----8-10-10---10-7-7---5-5-5---5/8--8----8-10-10---10-5-5---5-5-5-|-8--8----8--10-10---10-7-7---5-5-5-|
E|-----------8--8----8--5-5---3-3-3---3/----------8--8----8--3-3---3-3-3-|------------8--8----8--5-5---3-3-3-|

e|-------------------------------------------------|
B|-------------------------------------------------|
G|-4-----------------------------------------------|
D|-5---------5-5-5-5---------5---------------------|
A|-5-3-3-3-3-3-3-3-3-5-5-5-5-5---------------------|
E|-3-1-1-1-1---------3-3-3-3-3---------------------|
   * * * * * * * * * * * *
Guitar 2
e|---------------------------------------2x-|----------------------------------------------------------|
B|------------------------------------------|----------------------------------------------------------|
G|-14-14----14-12-12----12-12-12---12-12-12-|--------------10-10---5-5-5---2-2-2-----------------------|
D|------------------------------------------|-(silence)--5/10-10---5-5-5---2-2-2---5-5-5---5-(silence)-|
A|-12-12----12-10-10----10-10-10---10-10-10-|------------5/8--8----3-3-3---0-0-0---5-5-5---5-----------|
E|------------------------------------------|------------3/------------------------3-3-3---3-----------|

e|-/15~--12~----10~--------12~--15~----------------10~--------------15-12-12-15-12-12-15-12-15-12-15-|
B|------------------13~-----------------12~--13~------------10~-----15-13-13-15-13-13-15-13-15-13-15-|
G|-----------------------------------------------------12~------12~----------------------------------|
D|---------------------------------------------------------------------------------------------------|
A|---------------------------------------------------------------------------------------------------|
E|---------------------------------------------------------------------------------------------------|

Chorus:

Guitar 2
e|---------------------------------------------|----1.-|--------------2.-||
B|---------------------------------------------|-------|-----------------||
G|-------5------------------------5------------|-------|-----------------||
D|-3-----5--x8-7--x8-5------3-----5--x8-5------|-5-----|-5-5-5-5-5-5-5-5-||
A|-3--x8-3-----7-----5--x8--3--x8-3-----5--x16-|-5--x8-|-5-5-5-5-5-5-5-5-||
E|-1-----------5-----3------1-----------3------|-3-----|-3-3-3-3-3-3-3-3-||

Guitar 2
e|----------------------2x-|----1.-|--------------2.-||
B|-13----------------12----|-12----|-12--12--12------||
G|-----x24--------------x8-|----x8-|-----------------||
D|-10----------------9-----|-9-----|-9---9---9-------||
A|-------------------------|-------|-----------------||
E|-------------------------|-------|-----------------||

Bridge:

Guitar 1
e|---------------------------------------------------------|-----------------------5~--5-5~-------2x-|-------|
B|-1010--10-8-8------55---------1010--10-8-8---------------|-10~-1010~--8~--8-8~---5~--5-5~--3~-3-3~-|-------|
G|----------9-9---9--55---444------------9-9---9--44---444-|------------9~--9-9~---5~--5-5~--4~-4-4~-|-4-----|
D|-1010--10-1010--10-77---555---1010--10-1010--10-55---555-|-10~-1010~--10~-1010~--7~--7-7~--5~-5-5~-|-5-----|
A|-8-8---8--1010--10-77---555---8-8---8--1010--10-55---555-|-8~--8-8~---10~-1010~--7~--7-7~--5~-5-5~-|-5--x8-|
E|----------8-8---8--55---333------------8-8---8--33---333-|------------8~--8-8~---5~--5-5~--3~-3-3~-|-3-----|
                                                ^ 2:27
Guitar 2                 V 1:56
e|------------------------------------------------------13--x8-12--x16-10--x8--13--x8-12--x16-10--x8---------|
B|-------------------8b10rbrb--8-10-8-6-5--------------------------------------------------------------------|
G|-----(silence)-----9b10rbrbr-9-10-9-7-5---(silence)------------------------------------------------(pause)-|
D|-----------------------------------------------------------------------------------------------------------|
A|-----------------------------------------------------------------------------------------------------------|
E|-----------------------------------------------------------------------------------------------------------|

Chorus:

Guitar 1
e|---------------------------------------------|----1.-|----2.-||
B|---------------------------------------------|-------|-------||
G|-------5------------------------5------------|-------|-------||
D|-3-----5--x8-7-----5------3-----5--x8-5------|-5-----|-5-----||
A|-3--x8-3-----7--x8-5--x8--3--x8-3-----5--x16-|-5--x8-|-5--x8-||
E|-1-----------5-----3------1-----------3------|-3-----|-3-----||

Guitar 2
e|----------------------2x-|----1.-|----2.-||
B|-13----------------12----|-12----|-12----||
G|-----x24--------------x8-|----x8-|----x8-||
D|-10----------------9-----|-9-----|-9-----||
A|-------------------------|-------|-------||
E|-------------------------|-------|-------||

Outro:

Guitar 1 - repeat til fadeout
e|-------------------------------------|
B|-10-10---10-8--8-------5-5-----------|
G|------------9--9----9--5-5---4-4-4---|
D|-10-10---10-10-10---10-7-7---5-5-5---|
A|-8--8----8--10-10---10-7-7---5-5-5---|
E|------------8--8----8--5-5---3-3-3---|

Guitar 2 (comes in at 2:58)
e|------------------------------------------------------------------------|
B|-8b10~---r-8~------------8b10~---r-8~----/13~----15b17r~---b17~---------|
G|----------------9~------------------------------------------------------|
D|------------------------------------------------------------------------|
A|------------------------------------------------------------------------|
E|------------------------------------------------------------------------|
___________________________________________________________________________________________________________
b - bend note
r - release bend
/ or \ - slide
* - palm mute
~ - let note ring

Find guitar tabs and chords

A B C D E F G H I J K L M N O P Q R S T U V W X Y Z #