Log in

One click and you are in

Login with Facebook Login with Google

Why sign up and log in

Guitar Tabs Explorer
Downset tabs for Empower

Guitar tabs

Empower-Downset-Do We Speak A chord diagramA augmentedA Dead Language.
Tabbed by-Richard Lynch


Tuning-C#,G#,C#,F#,A#,D#
h-hammer on
p-pull off
/slide up
\slide down
intro x2
|-------------------------------------------
|-------------------------------------------
|-------------------------------------------
|-------------------------------------------
|-0-0-0-0-0-0-0-0-0-0-0-0-1h3p1h3p1---------
|-0-0-0-0-0-0-0-0-0-0-0-0-1h3p1h3p1---------
|-----------------------|
    palm mute


intro 2/chorus
|---------------------------------------------------------
|---------------------------------------------------------
|---------------------------------------------------------
|-0-3-6---5-3-5--0-3-6-1-3-1--0-3-6---5-3-5--6-6-5-5-3-3-1
|-0-3-6---5-3-5--0-3-6-1-3-1--0-3-6---5-3-5--6-6-5-5-3-3-1
|-0-3-6-6p5-3-5--0-3-6-1-3-1--0-3-6-6p5-3-5--6-6-5-5-3-3-1
                                                      *hold this note


verse
|--------------------------------------------------
|--------------------------------------------------
|--------------------------------------------------
|-----------------------3-0------------------------
|-3-5-12\-3h5p0-3p0-----3-0--3h5p0-3p0-------------
|-----12\----------5-3--3-0-----------5-3----------

|--------------------------------------------------
|--------------------------------------------------
|--------------------------------------------------
|-----------------------3-0------------6-5-3-5-3---
|-3-5-12\-3h5p0-3p0-----3-0--3h5p0-3p0-6-5-3-5-3---
|-----12\----------5-3--3-0------------6-5-3-5-3---
                                       |-------|
                                        palm mute
Then comes a the chorus with some bends but thats easy to figure out.

The theres a little fill
|---------------------------------------------------------
|---------------------------------------------------------
|---------------------------------------------------------
|-0-0-0-0-0-0-12\-----------------------------------------
|-0-0-0-0-0-0-12\-----------------------------------------
|-0-0-0-0-0-0-12\----------------------------------------

i'm not sure of the order cause im doing this from memory. but this comes up
somewhere
|-----------------------------------------------------
|-----------------------------------------------------
|-----------------------------------------------------
|-----------------------------3p0---------------------
|-3-5-----3p0-3-5-----3p0-3-5-------------------------
|-----3-5---------3-5---------------------------------

Then u might have to do the chorus again. Then comes this outro
|-----------------------------------------------------
|-----------------------------------------------------
|-----------------------------------------------------
|-----------------------------------------------------
|-1h3p1h3p1--------------------------------------------
|-1h3p1h3p1--------------------------------------------

Thats it. email me with any tips or comments at lynchrichard23@hotmail.com.

Almost there ...

Sign in to get your own page with links to favourite songs and more. You are just one click away...

Login with Facebook Login with Google