The Flame by Dover

The Flame tab by Dover

Guitar tabs

Intro: F E Dm A# Am G F E C
F     C
I can't believe that I tried
A#            Am
to freeze your heart
F           C
had to clean the mess
A#                 Am
and to keep my lucky start
A#       F        C
I can stay in bed all I want

A      C  Dm        A#
'Cause I got you and your love boy!
F         C
you're doing me so harm

Dm       A#   F          C
I knew that you would never leave me
Dm           A#
wasted my time, no!
F             C
won't do that no more
Dm       A#          F      C
I knew that you would never leave me

F E Dm A# Am G F E C x2

I can't believe that I thought
I saw your ghost
I've been losing sleep
I can stay in bed all I want

'Cause I got you and your love boy!
you're doing me so harm
I knew that you would never leave me
wasted my time, no!
won't do that no more
I knew that you would never leave me

Solo: Dm A# Dm A# F C

E------------------------------------------------|
B---------6----6h8(b)p6---6--6h8(b)p6------------|
G-----------7-----------7-------------5-7--------|
D------------------------------------------------|
A------------------------------------------------|
E------------------------------------------------|

---8(b)8-----------------------------------------|
--------6-5-6-*(6&6%6)------6-------6------------|
---------------------------------5---------7-----|
---------------------/8-----8-7------7-5-7-------|
-------------------------------------------------|
-------------------------------------------------|
'Cause I got you and your love boy!
you're doing me so harm
I knew that you would never leave me
wasted my time, no!
won't do that no more
I knew that you would never leave me

Find guitar tabs and chords

A B C D E F G H I J K L M N O P Q R S T U V W X Y Z #