Log in

One click and you are in

Login with Facebook Login with Google

Why sign up and log in

Guitar Tabs Explorer
Dot Hacker guitar chords for Idleidolidyl

Guitar chords with lyrics

Intro:

e|---------------------------|
B|---5--3----3-------4-------|
G|--------------3-------2----| 3x
D|---0--0----0--0----0--0----|
A|---------------------------|
E|---------------------------|

Verse 1:

Main piano throughout all verses (except for variations):

   A chord diagramDsus2Dsus2 -> A chord diagramD5D5  F#+ -> A chord diagramF#F#  Bbm/F -> A chord diagramF minorFm  A chord diagramDb6Db6 -> A chord diagramDbmaj7Dbmaj7

e|------------------------------------------------|
B|------------------------------------------------|
G|---9----7------7----6------6----5------3----5---|
D|---7----7------8----8------8----6------3----3---|
A|---5----5------9----9------8----8------4----4---|
E|------------------------------------------------|

  A chord diagramDsus2Dsus2 A chord diagramD5D5   F#+ A chord diagramF#F#  Bbm/F  A chord diagramF minorFm      A chord diagramDb6Db6 A chord diagramDbmaj7Dbmaj7
I'm idle, I've never seen someone do so much
A chord diagramDsus2Dsus2 A chord diagramD5D5    F#+ A chord diagramF#F#     Bbm/F A chord diagramF minorFm  A chord diagramDb6Db6 A chord diagramDbmaj7Dbmaj7
nothing, for so long, an ongoing standstill
  A chord diagramDsus2Dsus2 A chord diagramD5D5 F#+ A chord diagramF#F#     Bbm/F A chord diagramF minorFm  A chord diagramDb6Db6 A chord diagramDbmaj7Dbmaj7
Like algae growing, a collection of dust
A chord diagramDsus2Dsus2 A chord diagramD5D5  F#+ A chord diagramF#F# Bbm/F A chord diagramF minorFm
Nothing doing, f**k all


Chorus:

Chorus chords:

    A chord diagramA majorA       A chord diagramBb majorBb      A chord diagramAb6Ab6     A chord diagramFF

e|-------|-------|-------|-------|
B|--(5)--|---6---|---6---|---1---|
G|---6---|---7---|---5---|---2---|
D|---7---|---8---|---6---|---3---|
A|---7---|---8---|---6---|---3---|
E|---5---|---6---|---4---|---1---|

    A chord diagramA majorA      A chord diagramBb majorBb    A chord diagramAb6Ab6     A chord diagramFF
The more I try I can't decide which
      A chord diagramA majorA        A chord diagramBb majorBb      A chord diagramFF
which i, which idle am I


Verse 2:

Variation 1 (listen for rythmic change):

 A chord diagramDsus2Dsus2 -> A chord diagramD5D5 -> A chord diagramBb majorBb   F#+ -> A chord diagramF#F#  Bbm/F -> A chord diagramF minorFm  A chord diagramDb6Db6 -> A chord diagramDbmaj7Dbmaj7

e|-----------------------------------------------------|
B|-------------6---------------------------------------|
G|---9----7----7------7----6------6----5------3----5---|
D|---7----7----8------8----8------8----6------3----3---|
A|---5----5----8------9----9------8----8------4----4---|
E|-----------------------------------------------------|

        A chord diagramDsus2Dsus2 A chord diagramD5D5  F#+ A chord diagramF#F#   Bbm/F A chord diagramF minorFm      A chord diagramDb6Db6 A chord diagramDbmaj7Dbmaj7  (main riff)
You're my idol, I worship the ground you walk upon
A chord diagramDsus2Dsus2 A chord diagramD5D5 F#+ A chord diagramF#F# Bbm/F A chord diagramF minorFm  A chord diagramDb6Db6 A chord diagramDbmaj7Dbmaj7                 (main riff)
Either of us know why we keep it that way
A chord diagramDsus2Dsus2 A chord diagramD5D5 A chord diagramBb majorBb F#+ A chord diagramF#F# Bbm/F A chord diagramF minorFm A chord diagramDb6Db6 A chord diagramDbmaj7Dbmaj7               (variation 1)
I idolize blindly, my eyes averted
A chord diagramDsus2Dsus2 A chord diagramD5D5      F#+ A chord diagramF#F#    Bbm/F A chord diagramF minorFm     A chord diagramDb6Db6 A chord diagramDbmaj7Dbmaj7      (main riff)
My life means nothing, it's you I'm interested in


Chorus:

    A chord diagramA majorA      A chord diagramBb majorBb    A chord diagramAb6Ab6     A chord diagramFF
The more I try I can't decide which
      A chord diagramA majorA        A chord diagramBb majorBb      A chord diagramFF
which i, which idol am I


A chord diagramDsus2Dsus2 A chord diagramD5D5  F#+ A chord diagramF#F#  Bbm/F A chord diagramF minorFm  A chord diagramDb6Db6 A chord diagramDbmaj7Dbmaj7
                            Which one am I?
A chord diagramDsus2Dsus2 A chord diagramD5D5  F#+ A chord diagramF#F#  Bbm/F A chord diagramF minorFm  A chord diagramDb6Db6 A chord diagramDbmaj7Dbmaj7
                            Which won am I?


Breakdown:

Bass riff:

e|---------------------------|
B|---------------------------|
G|---------------------------|
D|-----8--7--8--7--8---------|
A|--5------------------------|
E|---------------------------|

For the dissonant piano chord you can play this one:

e|----6----|
B|----5----|
G|----7----| (submitted already in the another tab)
D|----7----|
A|----5----|
E|---------|


Verse 3:

Variation 2 (listen for rythmic change):

 A chord diagramDsus2Dsus2 -> A chord diagramD5D5 -> A chord diagramBb majorBb  F#+ -> A chord diagramF#F# -> A chord diagramBb majorBb    A chord diagramF6F6 -> A chord diagramFF    A chord diagramDb6Db6 -> A chord diagramDbDb

e|----------------------------------------------------------|
B|-------------6----------------6---------------------------|
G|---9----7----7------7----6----7------7----6------5----3---|
D|---7----7----8------8----8----8------7----7------5----5---|
A|---5----5----8------9----9----8------8----8------6----6---|
E|----------------------------------------------------------|

A chord diagramDsus2Dsus2 A chord diagramD5D5  F#+ A chord diagramF#F#    Bbm/F A chord diagramF minorFm    A chord diagramDb6Db6 A chord diagramDbmaj7Dbmaj7                   (main riff)
An idyl, a picture, idyllically in my mind
    A chord diagramDsus2Dsus2 A chord diagramD5D5       F#+ A chord diagramF#F#         Bbm/F A chord diagramF minorFm       A chord diagramDb6Db6 A chord diagramDbmaj7Dbmaj7  (main riff)
I envisioned it, I dreamed of it, take me there, right now
A chord diagramDsus2Dsus2 A chord diagramD5D5 A chord diagramBb majorBb F#+ A chord diagramF#F# A chord diagramBb majorBb A chord diagramF6F6 A chord diagramFF A chord diagramDb6Db6 A chord diagramDbDb                            (variation 2)
This is all I've ever wanted
A chord diagramDsus2Dsus2 A chord diagramD5D5  F#+ A chord diagramF#F#  Bbm/F A chord diagramF minorFm  A chord diagramDb6Db6 A chord diagramDbmaj7Dbmaj7                       (main riff)
An idyl, my idyl


Chorus:

    A chord diagramA majorA      A chord diagramBb majorBb    A chord diagramAb6Ab6     A chord diagramFF
The more I try I can't decide which
      A chord diagramA majorA        A chord diagramBb majorBb      A chord diagramFF
which i, which idyl am I
    A chord diagramA majorA      A chord diagramBb majorBb    A chord diagramAb6Ab6     A chord diagramFF
The more I try I can't decide which
      A chord diagramA majorA        A chord diagramBb majorBb      A chord diagramFF
which i, which idyl am I


Outro:
(chords following the vocal melody; you can just play basic chords written by names)

    A chord diagramD/AD/A     A chord diagramBb majorBb      A chord diagramAb6Ab6     A chord diagramDmDm

e|---5-------------------3---5---5---|
B|---7---7---8---5---6---6---6---6---|
G|---7---7---7---7---5---5---7---7---| 3x
D|---7---7---8---8---6---6---7---7---|
A|---0---0---8---8---6---6---5---5---|
E|-----------6---6---4---4-----------|

Almost there ...

Sign in to get your own page with links to favourite songs and more. You are just one click away...

Login with Facebook Login with Google