Log in

One click and you are in

Login with Facebook Login with Google

Why sign up and log in

Guitar Tabs Explorer
Dope chords for Everything sucks

Guitar chords with lyrics

DOPE
EVERYTHING SUCKS
ALBUM: FELONS AND REVOLUTIONARIES (1999)

TABBED BY MARK (WISCONSIN_DEATH_TRIP69@HOTMAIL.COM)
TUNE GUITARS LIKE THIS:CGCFAD
I HAVE A chord diagramA augmentedA TUNER PROGRAM IF U NEED IT EMAIL ME.
(WISCONSIN_DEATH_TRIP69@HOTMAIL.COM)

HERE IT IS EVERYONE. (THIS ISNT THE RADIO VERSION, THIS IS THE ONE OFF THE
CD) I HAVE HAD SO MANY REQUESTS FOR THIS AND FINALLY GOT IT DONE. I'VE
WORKED ON THIS FOR SO LONG, TRUST ME THIS IS CORRECT. THERE ARE 2 GUITARS IN
THIS SONG. IN THE CHORUS IS THE ONLY TIME THE 2ND GUITAR PLAYS WHICH I HAVE
SPECIFIED IN THE CHORUS RIFF (RIFF A chord diagramD MajorD). THE 2ND GUITAR IS DOING MOSTLY PALM
MUTING THE WHOLE SONG.
TAB KEY:
P = pull off
/ = slide up
\slide down
P.M. = palm mute
x = dead note (palm mute)

RIFF A chord diagramA augmentedA (INTRO/INTERLUDE PLAYED BEHIND SCRATCH SOLO)
D---------------------------
A---------------------------
F---------------------------
C---1-1---4----1-1---6-9----
G---1-1---4----1-1---6-9----
C---1-1---4----1-1---6-9----
   _P.M.       P.M.

RIFF A chord diagramBB
D----------------------------
A----------------------------
F----------------------------
C-1-1-1-1--6\3--x-x-x-x------
G-1-1-1-1--6\3--x-x-x-x------
C-1-1-1-1--6\3--x-x-x-x------
  _P.M.__

RIFF A chord diagramC majorC
D----------------------------
A----------------------------
F----------------------------
C-1-1-1-1--8\5--x-x-x-x------
G-1-1-1-1--8\5--x-x-x-x------
C-1-1-1-1--8\5--x-x-x-x------
  __P.M._

RIFF A chord diagramD MajorD (CHORUS)

NOTE: KIND OF STRUM THESE TO GET THE RIGHT SOUND, I JUST PUT THE CHORDS
DOWN.                        |HERE IS GUITAR 2. I'M NOT SURE IF IT'S
                             |RIGHT BUT IT'S CLOSE ENOUGH.
D----------------------------|----------------------------------
A----------------------------|---------------------------------
F---------7--9---------------|------------15---17---------------
C-5---7---7--9---------------|--17---19-------------------------
G-5---7---5--7---------------|----------------------------------
C-5---7----------------------|----------------------------------

RIFF E: (END)
D----------------------------------
A----------------------------------
F----------------------------------
C-1-1-1-1---8p5--7p5--6p3----------
G-1-1-1-1---8p5--7p5--6p3----------
C-1-1-1-1---8p5--7p5--6p3----------
__P.M.__

ORDER:

RIFF A: x8

RIFF B: x9

RIFF C: x1

RIFF B: x1

RIFF C: x1

RIFF D: x4

RIFF B: x4
(SHORT PAUSE)

RIFF B: x5

RIFF C: x1

RIFF B: x1

RIFF C: x1

RIFF D: x4

RIFF A: x12(PLAYED BEHIND SCRATCH SOLO)

RIFF D: x4

RIFF B: x3

RIFF E: x1

YOUR ON YOUR OWN FOR LYRICS. IF THERE ARE ANY CORRECTIONS (OF COURSE THERE
SHOULDNT BE) SEND THEM TO WISCONSIN_DEATH_TRIP69@HOTMAIL.COM

Other versions of Everything Sucks

Everything sucksTabs

Almost there ...

Sign in to get your own page with links to favourite songs and more. You are just one click away...

Login with Facebook Login with Google