Log in

One click and you are in

Login with Facebook Login with Google

Why sign up and log in

Guitar Tabs Explorer
The Doors bass tabs for Unhappy girl

Bass tabs

The Doors - "Unhappy Girl"

 Intro   1st Verse Riff x4
G|----------|-----------------10-|
D|----------|--10--810-8--8-8---8|
A|----------|----10---8----8-----|
E|8--8-8--8-|8----------6--------|

 Verse End
G|-------------------11-------------------------|
D|--10-----------8-8---8--10---------10---------|
A|------10---10---8-----------108--------10---10|
E|8---11---11--6--------8---11---6-8---11---11--|

 Chorus
G|---12------------12-------------------------
D|-------12-1012-------12-1012----10---8------
A|10---12-------10---12-------8-11----8-----8-
E|----------------------------------9---6-9---

--------------------------------------|
 ----10810-810--10810-810--10810-810---|
 -8------------------------------------|
 9-8----------8----------8----------8--|

 solo
G|-----------------------------------------12
D|--8-8--8--10--8---8--8-8--8--10--8---8-----
A|---8--8-----10--10----8--8-----10--10-11---
E|6-------8----------6-------8---------------

------------------------12--12-------|
 --13---13--10--8---8------12--12-----|
 11---11------10--10--11---------10---|
 ---------8-------------------------8-|

 2nd/3rd verse riff   3rd verse end (song end)
G|----------------10-|-------------------11-----------------|
D|--10--8--8--8-8---8|--10-----------8-8---8--10------------|
A|----10--8----8-----|------10---10---8-----------108-------|
E|8---------6--------|8---11---11--6--------8---11---6-8----|

Tabbed by Christopher.

Almost there ...

Sign in to get your own page with links to favourite songs and more. You are just one click away...

Login with Facebook Login with Google