Log in

One click and you are in

Login with Facebook Login with Google

Why sign up and log in

Guitar Tabs Explorer
The Doors bass tabs for Tightrope ride

Bass tabs

The Doors - Tightrope ride

normal tuning


(0.14)
G|---------------------------------------------------------------------------|
D|---------------------------------------------------------------------------|
A|--7--7-7--7-5-5---4-4-5-5-6-6-7-7------------------------------------------|
E|----------------5----------------------------------------------------------|x1
G|---------------------------------------------------------------------------|
D|---------------------------------------------------------------------------|
A|--7--7-7--7-5-5------------------------------------------------------------|
E|----------------5-5-4-4-3-3-2-2--------------------------------------------|x1


G|--------------------------------------5-7-7-----5-5------------------------|
D|----------------------5-7---5-----5h7-------7-7-----7-7-5-5----------------|
A|--7--7-7--7-5-5---5h7-----7---7-7------------------------------------------|
E|----------------5----------------------------------------------------------|x1

G|---------------------------------------------------------------------------|
D|---------------------------------------------------------------------------|
A|--7--7-7--7-5-5------------------------------------------------------------|
E|----------------5-5-4-4-3-3-2-2--------------------------------------------|x1


G|---------------------------------------------------------------------------|
D|---------------------------------------------------------------------------|
A|--7--7-7--7-5-5---4-4-5-5-6-6-7-7------------------------------------------|
E|----------------5----------------------------------------------------------|x1


G|---------------------------------------------------------------------------|
D|----------------------5-7-5------------------------------------------------|
A|--7--7-7--7-5-5---5h7-------7-5--------------------------------------------|
E|----------------5----------------------------------------------------------|x1

G|---------------------------------------------------------------------------|
D|---------------------------------------------------------------------------|
A|--7--7-7--7-5-5------------------------------------------------------------|
E|----------------5-5-4-4-3-3-2-2--------------------------------------------|x1


G|---------------------------------------------------------------------------|
D|----------------------5-7-5------------------------------------------------|
A|--7--7-7--7-5-5---5h7-------7-5--------------------------------------------|
E|----------------5----------------------------------------------------------|x1


G|---------------------------------------------------------------------------|
D|---------------------------------------------------------------------------|
A|--7--7-7--7-5-5------------------------------------------------------------|
E|---------------------------------------------------------------------------|x1


(0.48)
G|-------------7-----7-------------------------------------------------------|
D|---------------------------------------------------------------------------|
A|------7-7--5---5-5---5-----------------------------------------------------|
E|--5-5----------------------------------------------------------------------|x4


(0.59)
G|---------------------------------------------------------------------------|
D|---------------------------------------------------------------------------|
A|--7--7-7--7-5-5---4-4-5-5-6-6-7-7------------------------------------------|
E|----------------5----------------------------------------------------------|x1


G|---------------------------------------------------------------------------|
D|---------------------------------------------------------------------------|
A|--7--7-7--7-5-5------------------------------------------------------------|
E|----------------5-5-4-4-3-3-2-2--------------------------------------------|x1


G|---------------------------------------------------------------------------|
D|----------------------5-7-5------------------------------------------------|
A|--7--7-7--7-5-5---5h7-------7-5--------------------------------------------|
E|----------------5----------------------------------------------------------|x1


G|---------------------------------------------------------------------------|
D|---------------------------------------------------------------------------|
A|--7--7-7--7-5-5---4-4-5-5-6-6-7-7------------------------------------------|
E|----------------5----------------------------------------------------------|x1


G|---------------------------------------------------------------------------|
D|----------------------5-7-5------------------------------------------------|
A|--7--7-7--7-5-5---5h7-------7-5--------------------------------------------|
E|----------------5----------------------------------------------------------|x1


G|---------------------------------------------------------------------------|
D|---------------------------------------------------------------------------|
A|--7--7-7--7-5-5------------------------------------------------------------|
E|----------------5-5-4-4-3-3-2-2--------------------------------------------|x1


G|---------------------------------------------------------------------------|
D|----------------------5-7-5------------------------------------------------|
A|--7--7-7--7-5-5---5h7-------7-5--------------------------------------------|
E|----------------5----------------------------------------------------------|x1


G|---------------------------------------------------------------------------|
D|---------------------------------------------------------------------------|
A|--7--7-7--7-5-5---4-4-5-5-6-6-7-7------------------------------------------|
E|----------------5----------------------------------------------------------|x1

G|---------------------------------------------------------------------------|
D|---------------------------------------------------------------------------|
A|--7--7-7--7-5-5---4-4-5-5-6-6-7-7------------------------------------------|
E|----------------5----------------------------------------------------------|x1


G|---------------------------------------------------------------------------|
D|---------------------------------------------------------------------------|
A|--7--7-7--7-5-5------------------------------------------------------------|
E|---------------------------------------------------------------------------|x1


(1.30)
G|---------------------------------------------------------------------------|
D|---------------------------------------------------------------------------|
A|---------------------------------------------------------------------------|
E|--0-1-2-3-3-3-3-3-0-1-2-3-3-3-3-3-0-1-2-3-3-3-3-3--------------------------|x1


G|---------------------------------------------------------------------------|
D|---------------------------------------------------------------------------|
A|---------------------------------------------------------------------------|
E|--0-1-2-3-3-3-3-3-3-3-3-3-3-3-3-3-3-3-3-3-3-3-3-3--------------------------|x1


G|---------------------------------------------------------------------------|
D|---------------------------------------------------------------------------|
A|---------------------------------------------------------------------------|
E|--3-3-3-3-3-3-3-3-3-3-3-3-3-3-3-3-3-3-3-3-3-3-3-3--------------------------|x1


(1.53)
G|---------------------------------------------------------------------------|
D|---------------------------------------------------------------------------|
A|---------------------------------------------------------------------------|
E|--5-5-5-5-5-5-5-5-5-5-5-5-5-5-5-5-3-3-3-3-3-3-3-3-3-3-3-3-3-3-3-3----------|x1


G|---------------------------------------------------------------------------|
D|---------------------------------------------------------------------------|
A|---------------------------------------------------------------------------|
E|--3-3-3-3-3-3-3-3-3-3-3-3-3-3-3-3-3-3-3-3-3-3-3-3--------------------------|x1


(2.11)
G|-------------7-----7-------------------------------------------------------|
D|---------------------------------------------------------------------------|
A|------7-7--5---5-5---5-----------------------------------------------------|
E|--5-5----------------------------------------------------------------------|x8


(2.34)
G|---------------------------------------------------------------------------|
D|-----------8-8-------------------------------------------------------------|
A|--8-6-6--------------------------------------------------------------------|
E|--------6-6-6-6------------------------------------------------------------|x1


G|---------------------------------------------------------------------------|
D|---------------------------------------------------------------------------|
A|--8-6-6--------------------------------------------------------------------|
E|--------6-6h4-4-3-3-2-2-1--------------------------------------------------|x1


G|----------------------------------10-8-8-----6-6---------------------------|
D|-------------------6-8---6---8h10--------8-8-----8-8-6-6-------------------|
A|--8-(8)-6-6----6h8-----8---8-----------------------------------------------|
E|------------6--------------------------------------------------------------|x1


G|--------------------------------------------------------------------------|
D|--------------------------------------------------------------------------|
A|--8-6h8-0-6-6-------------------------------------------------------------|
E|--------------6-4-3-2-1---------------------------------------------------|x1


G|---------------------------------------------------------------------------|
D|---------------------------------------------------------------------------|
A|--8-(8)-6-6---5-5-6-6-7-7-8------------------------------------------------|
E|------------6--------------------------------------------------------------|x1


G|---------------------------------------------------------------------------|
D|-------------------6-8---6-------------------------------------------------|
A|--8-(8)-6-6----6h8-----8---------------------------------------------------|
E|------------6--------------------------------------------------------------|x1


G|---------------------------------------------------------------------------|
D|---------------------------------------------------------------------------|
A|--8-6-6--------------------------------------------------------------------|
E|--------6-6h4-4-3-3-2-2-1--------------------------------------------------|x1


G|---------------------------------------------------------------------------|
D|-------------------6-8---6-------------------------------------------------|
A|--8-(8)-6-6----6h8-----8---------------------------------------------------|
E|------------6--------------------------------------------------------------|x1


G|---------------------------------------------------------------------------|
D|---------------------------------------------------------------------------|
A|--8-(8)-6-6---5-5-6-6-7-7-8------------------------------------------------|
E|------------6--------------------------------------------------------------|x1


G|---------------------------------------------------------------------------|
D|-------------------6-8---6-------------------------------------------------|
A|--8-(8)-6-6----6h8-----8---------------------------------------------------|
E|------------6--------------------------------------------------------------|x1


G|---------------------------------------------------------------------------|
D|---------------------------------------------------------------------------|
A|--8-(8)-6-6---5-5-6-6-7-7-8------------------------------------------------|
E|------------6--------------------------------------------------------------|x1


G|---------------------------------------------------------------------------|
D|---------------------------------------------------------------------------|
A|--8-6-6--------------------------------------------------------------------|
E|--------6-6h4-4-3-3-2-2-1--------------------------------------------------|x1


G|---------------------------------------------------------------------------|
D|-------------------6-8---6-------------------------------------------------|
A|--8-(8)-6-6----6h8-----8---------------------------------------------------|
E|------------6--------------------------------------------------------------|x1


G|---------------------------------------------------------------------------|
D|---------------------------------------------------------------------------|
A|--8-(8)-6-6---5-5-6-6-7-7-8------------------------------------------------|
E|------------6--------------------------------------------------------------|x1


G|---------------------------------------------------------------------------|
D|-------------------6-8---6-------------------------------------------------|
A|--8-(8)-6-6----6h8-----8---------------------------------------------------|
E|------------6--------------------------------------------------------------|x1


G|---------------------------------------------------------------------------|
D|---------------------------------------------------------------------------|
A|--8-(8)-6-6---5-5-6-6-7-7-8------------------------------------------------|
E|------------6--------------------------------------------------------------|x1


G|---------------------------------------------------------------------------|
D|-------------------6-8---6-------------------------------------------------|
A|--8-(8)-6-6----6h8-----8---------------------------------------------------|
E|------------6--------------------------------------------------------------|x1


G|---------------------------------------------------------------------------|
D|---------------------------------------------------------------------------|
A|--8-(8)-6-6---5-5-6-6-7-7-8------------------------------------------------|
E|------------6--------------------------------------------------------------|x3


G|---------------------------------------------------------------------------|
D|---------------------------------------------------------------------------|
A|--8-6-6--------------------------------------------------------------------|
E|--------6-6h4-4-3-3-2-2-1--------------------------------------------------|x1


G|----------------------------------10-8-8-----6-6---------------------------|
D|-------------------6-8---6---8h10--------8-8-----8-8-6-6-------------------|
A|--8-(8)-6-6----6h8-----8---8-----------------------------------------------|
E|------------6--------------------------------------------------------------|x1


G|---------------------------------------------------------------------------|
D|---------------------------------------------------------------------------|
A|--8-6-6--------------------------------------------------------------------|
E|--------6-6h4-4-3-3-2-2-1--------------------------------------------------|x1


G|---------------------------------------------------------------------------|
D|-------------------6-8---6-------------------------------------------------|
A|--8-(8)-6-6----6h8-----8---------------------------------------------------|
E|------------6--------------------------------------------------------------|x1


G|---------------------------------------------------------------------------|
D|---------------------------------------------------------------------------|
A|--8-(8)-6-6---5-5-6-6-7-7-8------------------------------------------------|
E|------------6--------------------------------------------------------------|x1


G|---------------------------------------------------------------------------|
D|---------------------------------------------------------------------------|
A|--8-6-6--------------------------------------------------------------------|
E|--------6-6h4-4-3-3-2-2-1--------------------------------------------------|x1

fade out
end

Almost there ...

Sign in to get your own page with links to favourite songs and more. You are just one click away...

Login with Facebook Login with Google