Log in

One click and you are in

Login with Facebook Login with Google

Why sign up and log in

Guitar Tabs Explorer
The Doors bass tabs for The wasp

Bass tabs

Tuning: Standard (E A D G)

🎸 Intro:
G|-------------------------|-------------------------|
D|-------------------------|-------------------------|
A|-------------------------|-------------------------|
E|-------------------------|-----------------------7-|
  1 + + 2 + + 3 + + 4 + +  1 + + 2 + + 3 + + 4 + +

G|-------------------------|-------------------------|
D|-------------------------|-------------------------|
A|-5----7------------------|-5---7-------------------|
E|-------0.----0.----0.--7-|-------0.----0.----0.--7-|
  1 + + 2 + + 3 + + 4 + +  1 + + 2 + + 3 + + 4 + +

🎸 Verse 1: "I wanna tell you about Texas Radio and the Big Beat..."
G|-------------------------|-------------------------|
D|-------------------------|-------------------------|
A|-5----7------------------|-5---7-------------------|
E|-------0.----0.----0.--7-|-------0.----0.----0.--7-|
  1 + + 2 + + 3 + + 4 + +  1 + + 2 + + 3 + + 4 + +

G|-------------------------|-------------------------|
D|-------------------------|-------------------------|
A|-5----7------------------|-5---7-------------------|
E|-------0.----0.----0.--7-|-------0.----0.----0.--7-|
  1 + + 2 + + 3 + + 4 + +  1 + + 2 + + 3 + + 4 + +

G|-------------------------|-------------------------|
D|-------------------------|-------------------------|
A|-5----7------------------|-5---7-------------------|
E|-------0.----0.----0.--7-|-------0.----0.----0.--7-|
  1 + + 2 + + 3 + + 4 + +  1 + + 2 + + 3 + + 4 + +

G|-------------------------|-------------------------|
D|-------------------------|-------------------------|
A|-5----7------------------|-5---7-------------------|
E|-------0.----0.----0.--7-|-------0.----0.----0.--7-|
  1 + + 2 + + 3 + + 4 + +  1 + + 2 + + 3 + + 4 + +

G|-------------------------|-------------------------|
D|-------------------------|-------------------------|
A|-5----7------------------|-5---7-------------------|
E|-------0.----0.----0.--7-|-------0.----0.----0.--7-|
  1 + + 2 + + 3 + + 4 + +  1 + + 2 + + 3 + + 4 + +

G|-------------------------|-------------------------|
D|-------------------------|-------------------------|
A|-5----7------------------|-5---7-------------------|
E|-------0.----0.----0.--7-|-------0.----0.----0.--7-|
  1 + + 2 + + 3 + + 4 + +  1 + + 2 + + 3 + + 4 + +

G|-------------------------|-------------------------|
D|-------------------------|-------------------------|
A|-5----7------------------|-5---7-------------------|
E|-------0.----0.----0.--7-|-------0.----0.----0.--7-|
  1 + + 2 + + 3 + + 4 + +  1 + + 2 + + 3 + + 4 + +

G|-------------------------|-------------------------|
D|-------------------------|-------------------------|
A|-5----7------------------|-5---7-------------------|
E|-------0.----0.----0.--7-|-------0.----0.----0.--7-|
  1 + + 2 + + 3 + + 4 + +  1 + + 2 + + 3 + + 4 + +

G|-------------------------|-------------------------|
D|-------------------------|-------------------------|
A|-5----7------------------|-5---7-------------------|
E|-------0.----0.----0.--7-|-------0.----0.----0.--7-|
  1 + + 2 + + 3 + + 4 + +  1 + + 2 + + 3 + + 4 + +

G|-------------------------|-------------------------|
D|-------------------------|-------------------------|
A|-5----7------------------|-5---7-------------------|
E|-------0.----0.----0.--7-|-------0.----0.----0.--7-|
  1 + + 2 + + 3 + + 4 + +  1 + + 2 + + 3 + + 4 + +

G|-------------------------|-------------------------|
D|-------------------------|-------------------------|
A|-5----7------------------|-5---7-------------------|
E|-------0.----0.----0.--7-|-------0.----0.----0.----|
  1 + + 2 + + 3 + + 4 + +  1 + + 2 + + 3 + + 4 + +

🎸 Chorus 1:
G|-------------------------|-------------------------|
D|-------------------------|-------------------------|
A|-------4~----------4~----|-------------------------|
E|-0~----------0~--------0-|-2---3-3~----3~----3\----|
  1 + + 2 + + 3 + + 4 + +  1 + + 2 + + 3 + + 4 + +

G|-------------------------|-------------------------|
D|-------------------------|-------------------------|
A|-------4~----------4~-.--|-----0-1---2~------------|
E|-0~----------0~----------|-------------------------|
  1 + + 2 + + 3 + + 4 + +  1 + + 2 + + 3 + + 4 + +

G|-------------------------|-------------------------|
D|-------------------------|-------------------------|
A|-------4~----------4.----|-------------------------|
E|-0~----------0~----------|-4\----0-----4\----0-----|
  1 + + 2 + + 3 + + 4 + +  1 + + 2 + + 3 + + 4 + +

G|-------------------------|-------------------------|
D|-------4-4-4-4.----------|-------------------------|
A|-----------------4.------|-------------------------|
E|-2-2-2---------------2.--|-4.--3.--2.--0.--------7-|
  1 + + 2 + + 3 + + 4 + +  1 + + 2 + + 3 + + 4 + +

G|-------------------------|-------------------------|
D|-------------------------|-------------------------|
A|-5----7------------------|-5---7-------------------|
E|-------0.----0.----0.--7-|-------0.----0.----0.--7-|
  1 + + 2 + + 3 + + 4 + +  1 + + 2 + + 3 + + 4 + +

🎸 Verse 2: "The negroes in the forest..."
G|-------------------------|-------------------------|
D|-------------------------|-------------------------|
A|-5----7------------------|-5---7-------------------|
E|-------0.----0.----0.--7-|-------0.----0.----0.--7-|
  1 + + 2 + + 3 + + 4 + +  1 + + 2 + + 3 + + 4 + +

G|-------------------------|-------------------------|
D|-------------------------|-------------------------|
A|-5----7------------------|-5---7-------------------|
E|-------0.----0.----0.--7-|-------0.----0.----0.--7-|
  1 + + 2 + + 3 + + 4 + +  1 + + 2 + + 3 + + 4 + +

G|-------------------------|-------------------------|
D|-------------------------|-------------------------|
A|-5----7------------------|-5---7-------------------|
E|-------0.----0.----0.--7-|-------0.----0.----0.--7-|
  1 + + 2 + + 3 + + 4 + +  1 + + 2 + + 3 + + 4 + +

G|-------------------------|-------------------------|
D|-------------------------|-------------------------|
A|-5----7------------------|-5---7-------------------|
E|-------0.----0.----0.--7-|-------0.----0.----0.--7-|
  1 + + 2 + + 3 + + 4 + +  1 + + 2 + + 3 + + 4 + +

G|-------------------------|-------------------------|
D|-------------------------|-------------------------|
A|-5----7------------------|-5---7-------------------|
E|-------0.----0.----0.--7-|-------0.----0.----0.----|
  1 + + 2 + + 3 + + 4 + +  1 + + 2 + + 3 + + 4 + +

🎸 Chorus 2: "Now listen to this, I'll tell you..."
G|-------------------------|-------------------------|
D|-------------------------|-------------------------|
A|-------4~----------4~----|-------------------------|
E|-0~----------0~--------0-|-2---3-3~----3~----3\----|
  1 + + 2 + + 3 + + 4 + +  1 + + 2 + + 3 + + 4 + +

G|-------------------------|-------------------------|
D|-------------------------|-------------------------|
A|-------4~----------4~-.--|-----0-1---2~------------|
E|-0~----------0~----------|-------------------------|
  1 + + 2 + + 3 + + 4 + +  1 + + 2 + + 3 + + 4 + +

G|-------------------------|-------------------------|
D|-------------------------|-------------------------|
A|-------4~----------4.----|-------------------------|
E|-0~----------0~----------|-4\----0-----4\----0-----|
  1 + + 2 + + 3 + + 4 + +  1 + + 2 + + 3 + + 4 + +

G|-------------------------|-------------------------|
D|-------4-2---4.----------|-------------------------|
A|-----------4-----4.------|-----------------------7-|
E|-2-2-2---------------2.--|-4.--3.--2.--0.----------|
  1 + + 2 + + 3 + + 4 + +  1 + + 2 + + 3 + + 4 + +

Guitar 🎸 Solo:
G|-------------------------|-------------------------|
D|-5----7------------------|-5---7-------------------|
A|-------0.----0.----0.--7-|-------0.----0.----0.--7-|
E|-------------------------|-------------------------|
  1 + + 2 + + 3 + + 4 + +  1 + + 2 + + 3 + + 4 + +

G|-------------------------|-------------------------|
D|-5----7------------------|-5---7-------------------|
A|-------0.----0.----0.--7-|-------0.----0.----0.--7-|
E|-------------------------|-------------------------|
  1 + + 2 + + 3 + + 4 + +  1 + + 2 + + 3 + + 4 + +

G|-------------------------|-------------------------|
D|-5----7------------------|-5---7-------------5---5-|
A|-------0.----0.----0.--7-|-------0.----0.--7---7---|
E|-------------------------|-------------------------|
  1 + + 2 + + 3 + + 4 + +  1 + + 2 + + 3 + + 4 + +

G|-------------------------|-------------------------|
D|-5---7-------------------|-5~----7-5---5----/7~----|
A|-------0.----0.----0.--7-|-----7-----7-----7-------|
E|-------------------------|-------------------------|
  1 + + 2 + + 3 + + 4 + +  1 + + 2 + + 3 + + 4 + +

G|-------------------------|-------------------------|
D|-------------------5---5-|/7~----------------------|
A|-0.----0.----0.--7---7---|-----0-0.----0.----0.--7-|
E|-------------------------|-------------------------|
  1 + + 2 + + 3 + + 4 + +  1 + + 2 + + 3 + + 4 + +

G|-------------------------|-------------------------|
D|-5---7-------------------|-5---7-------------------|
A|-------0.----0.----0.--7-|---7---0.----0.----0-----|
E|-------------------------|-----------------0-----0-|
  1 + + 2 + + 3 + + 4 + +  1 + + 2 + + 3 + + 4 + +

G|-------------------------|-------------------------|
D|-------7---7-5---5-------|-------7---7-5---5---5-7-|
A|-0---0-------------7---7-|-0---0-------------7-----|
E|-------------------------|-------------------------|
  1 + + 2 + + 3 + + 4 + +  1 + + 2 + + 3 + + 4 + +

G|-------------------------|-------------------------|
D|------/7---7-5---5---5-7-|-7-----7-5---5---5---5-7-|
A|-0---0-------------7-----|-----------7---7---7-----|
E|-------------------------|-------------------------|
  1 + + 2 + + 3 + + 4 + +  1 + + 2 + + 3 + + 4 + +

G|-------------------------|-------------------------|
D|-------7---7-5---5-------|-------7---7-5---5-------|
A|-0---0-------------7---7-|-0---0-------------7---7-|
E|-------------------------|-------------------------|
  1 + + 2 + + 3 + + 4 + +  1 + + 2 + + 3 + + 4 + +

G|-------------------------|-------------------------|
D|------/7---7-5-----------|-------------------------|
A|-0-----------------7---7-|-0-0-0-0-0-0-0-0-0-0.----|
E|-------------------------|-------------------------|
  1 + + 2 + + 3 + + 4 + +  1 + + 2 + + 3 + + 4 + +

G|-------------------------|-------------------------|
D|-------------------------|-------------------------|
A|-4-4-4-3---4-------------|-------------------4-----|
E|-------------3---4.------|-4-----2---0-2---0-------|
  1 + + 2 + + 3 + + 4 + +  1 + + 2 + + 3 + + 4 + +

G|-------------------------|-------------------------|
D|-------------------------|-------------------------|
A|-4-4-4-3---4-------------|-------------------------|
E|-------------3---4.------|-----2-3.--4~------------|
  1 + + 2 + + 3 + + 4 + +  1 + + 2 + + 3 + + 4 + +

G|-------------------------|-------------------------|
D|-------------------------|-2-2-2-1---2-------------|
A|-4-4-4-3---4-------------|-------------3---4-------|
E|-------------4-4-4-3---4-|-------------------------|
  1 + + 2 + + 3 + + 4 + +  1 + + 2 + + 3 + + 4 + +

G|-------------------------|-------------------------|
D|/6-----4.--2-4---2-------|-------------------------|
A|-------------------4---2-|-4.----2---4-------5---7-|
E|-------------------------|-----4-----------7-------|
  1 + + 2 + + 3 + + 4 + +  1 + + 2 + + 3 + + 4 + +

Keyboard 🎸 Solo:
G|-------------------------|-------------------------|
D|-------------------------|-------------------------|
A|-------------------5---7-|-------------------5---7-|
E|-0.----0.----0.--7-------|-0.----0.----0.--7-------|
  1 + + 2 + + 3 + + 4 + +  1 + + 2 + + 3 + + 4 + +

G|-------------------------|-------------------------|
D|-------------------------|-------------------------|
A|-------------------5---7-|-------------------5---7-|
E|-0.----0.----0.--7-------|-0.----0.----0.--7-------|
  1 + + 2 + + 3 + + 4 + +  1 + + 2 + + 3 + + 4 + +

G|-------------------------|-------------------------|
D|-------------------------|-------------------------|
A|-------------------5---7-|-------------------5---7-|
E|-0.----0.----0.--7-------|-0.----0.----0.--7-------|
  1 + + 2 + + 3 + + 4 + +  1 + + 2 + + 3 + + 4 + +

G|-------------------------|-------------------------|
D|-------------------------|-------------------------|
A|-------------------5---7-|-------------------5---7-|
E|-0.----0.----0.--7-------|-0.----0.----0.--7-------|
  1 + + 2 + + 3 + + 4 + +  1 + + 2 + + 3 + + 4 + +

G|-------------------------|-------------------------|
D|-------------------------|-------------------------|
A|-------------------5---7-|-------------------5---7-|
E|-0.----0.----0.--7-------|-0.----0.----0.--7-------|
  1 + + 2 + + 3 + + 4 + +  1 + + 2 + + 3 + + 4 + +

G|-------------------------|-------------------------|
D|-------------------------|-------------------------|
A|-------------------5---7-|-------------------5---7-|
E|-0.----0.----0.--7-------|-0.----0.----0.--7-------|
  1 + + 2 + + 3 + + 4 + +  1 + + 2 + + 3 + + 4 + +

G|-------------------------|-------------------------|
D|-------------------------|-------------------------|
A|-------------------5---7-|-------------------5---7-|
E|-0.----0.----0.--7-------|-0.----0.----0.--7-------|
  1 + + 2 + + 3 + + 4 + +  1 + + 2 + + 3 + + 4 + +

G|-------------------------|-------------------------|
D|-------------------------|-------------------------|
A|-------------------5---7-|-------------------5---7-|
E|-0.----0.----0.--7-------|-0.----0.----0.--7-------|
  1 + + 2 + + 3 + + 4 + +  1 + + 2 + + 3 + + 4 + +

G|-------------------------|-------------------------|
D|-------------------------|-------------------------|
A|-------------------5---7-|-------------------5---7-|
E|-0.----0.----0.--7-------|-0.----0.----0.--7-------|
  1 + + 2 + + 3 + + 4 + +  1 + + 2 + + 3 + + 4 + +

G|-------------------------|-------------------------|
D|-------------------------|-------------------------|
A|-------------------5---7-|-------------------5---7-|
E|-0.----0.----0.--7-------|-0.----0.----0.--7-------|
  1 + + 2 + + 3 + + 4 + +  1 + + 2 + + 3 + + 4 + +

G|-------------------------|-------------------------|
D|-------------------------|-------------------------|
A|-------------------5---7-|-------------------5---7-|
E|-0.----0.----0.--7-------|-0.----0.----0.--7-------|
  1 + + 2 + + 3 + + 4 + +  1 + + 2 + + 3 + + 4 + +

G|-------------------------|-------------------------|
D|-------------------------|-------------------------|
A|-------------------5---7-|-------------------5---7-|
E|-0.----0.----0.--7-------|-0.----0.----0.--7-------|
  1 + + 2 + + 3 + + 4 + +  1 + + 2 + + 3 + + 4 + +

G|-------------------------|-------------------------|
D|-------------------------|-------------------------|
A|-------------------5---7-|-------------------5---7-|
E|-0.----0.----0.--7-------|-0.----0.----0.--7-------|
  1 + + 2 + + 3 + + 4 + +  1 + + 2 + + 3 + + 4 + +

G|-------------------------|-------------------------|
D|-------------------------|-------------------------|
A|-------------------5---7-|-------------------5-7-7-|
E|-0.----0.----0.--7-------|-0.----0.----0.--7-------|
  1 + + 2 + + 3 + + 4 + +  1 + + 2 + + 3 + + 4 + +

G|-------------------------|-------------------------|
D|-------------------------|-7-5-------5-------------|
A|-7-5---7-5---7-5-----5-7-|-----7-5-7---7-5-------5-|
E|-----7-----7-----7-7-----|-----------------7-5-7---|
  1 + + 2 + + 3 + + 4 + +  1 + + 2 + + 3 + + 4 + +

G|-------------------------|-------------------------|
D|-------------------------|-------------------------|
A|-7.----------------------|-------------------------|
E|-------------------------|-------------------------|
  1 + + 2 + + 3 + + 4 + +  1 + + 2 + + 3 + + 4 + +

G|-------------------------|-------------------------|
D|-------------------------|-------------------------|
A|-------------------------|-------------------------|
E|-0.----------------------|-------------------------|
  1 + + 2 + + 3 + + 4 + +  1 + + 2 + + 3 + + 4 + +

🎸 Chorus 3: "Now listen to this, I'll tell you..."
G|-------------------------|-------------------------|
D|-------------------------|-------------------------|
A|-------4~----------4~----|-------------------------|
E|-0~----------0~--------0-|-2---3-3~----3~----3\----|
  1 + + 2 + + 3 + + 4 + +  1 + + 2 + + 3 + + 4 + +

G|-------------------------|-------------------------|
D|-------------------------|-------------------------|
A|-------4~----------4~-.--|-----0-1---2~------------|
E|-0~----------0~----------|-------------------------|
  1 + + 2 + + 3 + + 4 + +  1 + + 2 + + 3 + + 4 + +

G|-------------------------|-------------------------|
D|-------------------------|-------------------------|
A|-------4~----------4.----|-------------------------|
E|-0~----------0~----------|-4\----0-----4\----0-----|
  1 + + 2 + + 3 + + 4 + +  1 + + 2 + + 3 + + 4 + +

G|-------------------------|-------------------------|
D|-4-4-4-4-2---4.----------|-------------------------|
A|-----------4-----4.------|-------------------------|
E|---------------------2.--|-4.--3.--2.--0.----------|
  1 + + 2 + + 3 + + 4 + +  1 + + 2 + + 3 + + 4 + +

***************************

| . Staccato
| \ Slide down
| / Slide up

***************************

Other versions of The Wasp

The wasp Texas radio and the big beatBass tabs

Almost there ...

Sign in to get your own page with links to favourite songs and more. You are just one click away...

Login with Facebook Login with Google