Log in

One click and you are in

Login with Facebook Login with Google

Why sign up and log in

Guitar Tabs Explorer
The Doors bass tabs for Road house blues

Bass tabs

Road House Blues.btab
The Doors
TablEdited by Poppamies

Tuning : E A D G 	Time Signature: 4/4

 |    |    |    |    |    |    |    |
|--------------------------------|--------------------------------|
|--------------------------------|--------------------------------|
|------------------------0-1-2---|------------------------0-1-2---|
|0-----0-0-----0-0-----0---------|0-----0-0-----0-0-----0---------|

 |    |    |    |    |    |    |    |
|--------------------------------|--------------------------------|
|--------------------------------|--------------------------------|
|------------------------0-1-2---|------------------------0-1-2---|
|0-----0-0-----0-0-----0---------|0-----0-0-----0-0-----0---------|

 |    |    |    |    |    |    |    |
|--------------------------------|--------------------------------|
|--------------------------------|--------------------------------|
|------------------------0-1-2---|------------------------0-----2-|
|0-----0-0-----0-0-----0---------|0-----0-0-----0-0-----0---------|

 |    |    |    |    |    |    |    |
|--------------------------------|--------------------------------|
|--------continues until...------|--------------------------------|
|--------------------------------|--------------------------------|
|--------------------------------|0-----0-0-----0-0-----0-0-------|

 |    |    |    |    |    |    |    |
|--------------------------------|--------------------------------|
|----------------2-----2-4-----2-|----------------2-----2-4-----2-|
|0-----0-3-----3-----------------|0-----0-3-----3-----------------|
|--------------------------------|--------------------------------|

 |    |    |    |    |    |    |    |
|--------------------------------|--------------------------------|
|----------------2-----2-4-----2-|----------------2-----2-4-----2-|
|0-----0-3-----3-----------------|0-----0-3-----3-----------------|
|--------------------------------|--------------------------------|

 |    |    |    |    |    |    |    |
|--------------------------------|--------------------------------|
|----------------2-----2-4-----2-|----------------2-----2-4-----2-|
|0-----0-3-----3-----------------|0-----0-3-----3-----------------|
|--------------------------------|--------------------------------|

 |    |    |    |    |    |    |    |
|--------------------------------|--------------------------------|
|--------------------------------|--------------------------------|
|2-2-2---2-2-2---2-2-2---2-2-2---|3-----3-----3-----2-------------|
|--------------------------------|--------------------------------|

 |    |    |    |    |    |    |    |
|--------------------------------|--------------------------------|
|--------------------------------|--------------------------------|
|------------------------0-----2-|------------------------0-1-2---|
|0-------0-----0-0-----0---------|0-----0-0-----0-0-----0---------|

 |    |    |    |    |    |    |    |
|--------------------------------|--------------------------------|
|--------------------------------|--------and so on.........------|
|------------------------0-1-2---|--------------------------------|
|0-----0-0-----0-0-----0---------|--------------------------------|

http://www.geocities.com/jani_bjorklund/janis.html 1058405404377

Almost there ...

Sign in to get your own page with links to favourite songs and more. You are just one click away...

Login with Facebook Login with Google