Log in

One click and you are in

Login with Facebook Login with Google

Why sign up and log in

Guitar Tabs Explorer
The Doors tabs for Peace frog

Guitar tabs

E-----|
B-----|                           Guitar 1
G-----|
D-----|
A-----5----5---5----X---X--X-X-X-X----5----5---5----X---X--X-X-X-X---|
E-----3----3---3----X---X--X-X-X-X----3----3---3----X---X--X-X-X-X---|

 That’s all the guitar really plays but if you’d like to play the electric piano
 Part on the guitar here it is:


E------------------------------------------|
B------------------------------------------|
G------------------------------------------|
D------------------------------------------|
A--------1-3-1-3-1-3-1-----------------|
E-----3-------------------3---------------|
Let the guitar play right before you

There’s a high part too:

E------------7-9-7-9-7-9-7-------|
B---------8------------------8-----|
G----|

Hope you like em

Almost there ...

Sign in to get your own page with links to favourite songs and more. You are just one click away...

Login with Facebook Login with Google