The Sun Is A Very Magic Fellow by Donovan

The Sun Is A Very Magic Fellow bass tab by Donovan

Bass tabs

Tuning: EADG

G|------------------------------------------------------------------------------------------------|
D|------------------------------------------------------------------------------------------------|
A|5-----------------------5---------5-------------------------------------5---------5-------------|
E|------------3-----------------------5-----------3-----------5-----------------------5-----------|

G|------------------------------------------------------------------------------------------------|
D|------------------------------------------------------------------------------------------------|
A|5-----------------------5---------5-------------------------------------5-----------------------|
E|------------3-----------------------5-----------3-----------5-----------------------5-----------|

G|------------------------------------------------|
D|------------------------------------------------|
A|------------------------5-------4-2-------------|
E|3-----------5-----------------------5-----------|

0:20

G|------------------------------------------------------------------------------------------------|
D|------------------------------------------------------------------------------------------------|
A|5-----------------------5---------5-------------------------------------5-----------------------|
E|------------3-----------------------5-----------3---------3-5-----------------------5-----------|

G|------------------------------------------------------------------------------------------------|
D|------------------------------------------------------------------------------------------------|
A|5-----------------------5-----------------------------------------------5-----------------------|
E|------------3-----------------------5-----------3-----------5-----------------------5-----------|

G|------------------------------------------------|
D|------------------------------------------------|
A|------------------------5-----------------------|
E|3-----------5-----------------------5-----------|

0:40

G|------------------------------------------------------------------------------------------------|
D|------------------------------------------------------------------------------------------------|
A|5-----------------------5---------5-------------------------------------5-----------------------|
E|------------3-----------------------5-----------3-----------5-----------------------5-----------|

G|------------------------------------------------------------------------------------------------|
D|------------------------------------------------------------------------------------------------|
A|5-----------------------5---------5-------------------------------------5-----------------------|
E|------------3-----------------------5-----------3-----------5-----------------------5---------5-|

G|------------------------------------------------|
D|------------------------------------------------|
A|------------------------5-------------------2-4-|
E|3---------3-5---------5-------------5-----5-----|

1:00

G|------------------------------------------------------------------------------------------------|
D|------------------------------------------------------------------------------------------------|
A|5-----------------------5-----------------------------------------------5-----------------------|
E|------------3-----------------------5-----------3-----------5-----------------------5-----------|

G|------------------------------------------------------------------------------------------------|
D|------------------------------------------------------------------------------------------------|
A|5-----------------------5-----------------------------------------------5-----------------------|
E|------------3-----------------------5-----------3-----------5---------------------5-------------|

G|------------------------------------------------|
D|------------------------------------------------|
A|------------------------5-----------------------|
E|3-----------5---------------------5-----------5-|

1:20

G|------------------------------------------------------------------------------------------------|
D|------------------------------------------------------------------------------------------------|
A|5-----------------------5-----------------------------------------------5-----------------------|
E|------------3-----------------------5---------5-3-----------5-----------------------5-----------|

G|------------------------------------------------------------------------------------------------|
D|------------------------------------------------------------------------------------------------|
A|5-----------------------5-----------------------------------------------5-----------------------|
E|------------3-----------------------5-----------3-----------5---------------------5-------------|

G|------------------------------------------------|
D|------------------------------------------------|
A|------------------------5---4-2---------2-4-----|
E|3-----------5---------------------5-----------5-|

1:40

G|------------------------------------------------------------------------------------------------|
D|------------------------------------------------------------------------------------------------|
A|5-----------------------5---------5-------------------------------------5-----------------------|
E|------------3-----------------------5-----------3-----------5---------5-------------5---------5-|

G|------------------------------------------------------------------------------------------------|
D|------------------------------------------------------------------------------------------------|
A|5-----------------------5-----------------------------------------------5-----------------------|
E|------------3-----------------------5-----------3-----------5---------------------5-------------|

G|------------------------------------------------|
D|------------------------------------------------|
A|------------------------5-----------------------|
E|3-----------5-----------------------5-----------|

2:00

G|------------------------------------------------------------------------------------------------|
D|------------------------------------------------------------------------------------------------|
A|5-----------------------5-----------------------------------------------5---------5-------------|
E|------------3-----------------------5-----------3-----------5-----------------------5-----------|

G|------------------------------------------------------------------------------------------------|
D|------------------------------------------------------------------------------------------------|
A|5-----------------------5-----------------------------------------------5-----------------------|
E|------------3-----------------------5-----------3-----------5---------------------5-------------|

G|------------------------------------------------|
D|------------------------------------------------|
A|------------------------5-----------------------|
E|3-----------5-----------------------5-----------|

2:20

G|------------------------------------------------------------------------------------------------|
D|------------------------------------------------------------------------------------------------|
A|------------------------5---------5-------------------------------------5---------5-------------|
E|3-----------5-----------------------5---------5-3---------3-5---------5-------------5-----------|

G|------------------------------------------------------------------------------------------------|
D|------------------------------------------------------------------------------------------------|
A|------------------------5---------5-------------------------------------5-----------------------|
E|3---------3-5-----------------------5-----------3---------3-5---------5-------------5-----------|

G|------------------------------------------------------|
D|------------------------------------------------------| fades out here.
A|------------------------5---------5-------------------|

Find guitar tabs and chords

A B C D E F G H I J K L M N O P Q R S T U V W X Y Z #