The Mandolin Man And His Secret by Donovan

The Mandolin Man And His Secret tab by Donovan

Guitar tabs

"The mandolin man and his secret", by Donovan
---------------------------------

    |CAPO 2|

RIFF 1 :
E||------------------------------|
B||------------------------------|
G||--------------------1---------|
D||-------1------2-1-2---1--2----|
A||--2------4-----------------4--|
E||-----0------0-----------------|

RIFF 2 + RIFF 1 :
----------------------------|-----------------------------|
----------------------------|-----------------------------|
----------------------------|-------------------1---------|
----------------------------|------1------2-1-2---1--2----|
--0--4-----2-----4------0(2)__(2)----4-----------------4--|
--------4-----2-----2-4-----|----0------0-----------------|

(2)__(2) : Hold the E at the end of the first measure !

Stanza :
--------
    RIFF 1                 RIFF 1
    He came into town with his mandolin
    RIFF 1                      RIFF 1
    Calling all the people and they came to him

Chorus :
--------
    RIFF 2                      RIFF 1
    He said : "I wanna hear all that's pretty"
    RIFF 2                      RIFF 1
    He said : "I wanna hear all that's nice"

And so on :

They laught at him with his mandolin
They left him there with his funny grin

The children of the town then came to him
Magically called with his mandolin

They smiled at him with his mandolin
Their eyes like his were sparkled in

He said : "I wanna hear all that's pretty"
He said : "I wanna hear all that's nice"
They said : "You wanna hear all that's pretty"
They said : "You wanna hear all that's nice"

RIFF 1 (ad lib)
La la la ;)

-----------------------------------------------------------------------
Transcribed by Pierre Quillery
06/04/2005
Comments, corrections : harrold.the.barrel[at]gmail.com

Find guitar tabs and chords

A B C D E F G H I J K L M N O P Q R S T U V W X Y Z #