Log in

One click and you are in

Login with Facebook Login with Google

Why sign up and log in

Guitar Tabs Explorer
Donovan tabs for Summer day reflection song

Guitar tabs

Summer Day Reflection Song

written by Donovan Leitch
from Donovan album Fairytale
tabbed by Adrian Dumchus (dumchusa@aol.com)

played in Standard Tuning capo on 3rd (A chord diagramE MajorE A chord diagramA augmentedA A chord diagramD MajorD A chord diagramG+G A chord diagramBB A chord diagramE MajorE from low to high)

(capo on 3rd)
Intro:

E-|------------------------|
B-|-----0------0----0---0--|
G-|-----0------0----2---2--|  Repeat 4x
D-|-----0---H--0----2---2--|
A-|--H-----0^2----0---0----|
E-|-0^3--------------------|


Verse:

E-|------------------------|
B-|-----0------0----0---0--|
G-|-----0------0----2---0--|
D-|-----0---H--0----2---0--|
A-|--H-----0^2----0---0----|
E-|-0^3--------------------|


Verse Fill 1:

E-|------------------------|
B-|-----0-----0-----0---0--|
G-|-----0-----0-----2---0--|
D-|-----0-----0-----2---0--|
A-|--H--------2--0----0----|
E-|-0^3----3---------------|

Caught sleeping in the sun...

Solo 1 (all solo parts played without capo):
                               H P
E-|------3---------3-------|--1^3^1--1--3--3/6~-----|
B-|---1---------1----------|------------------------|
G-|------------------------|------------------------|
D-|------------------------|------------------------|
A-|------------------------|------------------------|
E-|------------------------|------------------------|

Dragon kite in the sky...


Solo 2:
                               H P
E-|-6-6-6-6-6---6---3------|--1^3^1--1-1-3--3/6~-6~-|
B-|------------------------|------------------------|
G-|------------------------|------------------------|
D-|------------------------|------------------------|
A-|------------------------|------------------------|
E-|------------------------|------------------------|
               H P                           H  P
E-|--8~---8-8-6^8^6---6-6--|--8--10--11----10^11^10-|
B-|------------------------|------------------------|
G-|------------------------|------------------------|
D-|------------------------|------------------------|
A-|------------------------|------------------------|
E-|------------------------|------------------------|

E-|--10-10---11-----13-----|--15----13-----11-10----|
B-|------------------------|------------------------|
G-|------------------------|------------------------|
D-|------------------------|------------------------|
A-|------------------------|------------------------|
E-|------------------------|------------------------|

E-|--8-10-8-6-8-10----8----|---6~------------6~-----|
B-|------------------------|------------------------|
G-|------------------------|------------------------|
D-|------------------------|------------------------|
A-|------------------------|------------------------|
E-|------------------------|------------------------|

All the pebbles I have seen...


solo 3:

E-|------------------------|
B-|--1----4----6----6-/-8--|
G-|------------------------|
D-|------------------------|
A-|--3----6----8----8-/-10-|
E-|------------------------|

Jewel castles I have built...


solo 4:

E-|------------------------|
B-|--8----6----5----1------|
G-|------------------------|
D-|------------------------|
A-|--10---8----7----3------|
E-|------------------------|

Marionette dangles dead...


solo 5:
             H P
E-|---3--1--0^1^0-0-1-3----|
B-|-1----------------------|
G-|------------------------|
D-|------------------------|
A-|------------------------|
E-|------------------------|

Caught smiling in the sun...


solo 6:

E-|--10----8--6-----3------|
B-|------------------------|
G-|------------------------|
D-|------------------------|
A-|------------------------|
E-|------------------------|
          H P
E-|------0^1^0--1--3-------|
B-|---3--------------------|
G-|------------------------|  Repeat 8x
D-|------------------------|
A-|------------------------|
E-|------------------------|

E-|--(3)~----6~-----8~-----|
B-|------------------------|
G-|------------------------|
D-|------------------------|
A-|------------------------|
E-|------------------------|

Almost there ...

Sign in to get your own page with links to favourite songs and more. You are just one click away...

Login with Facebook Login with Google