Sand And Foam by Donovan

Sand And Foam tab by Donovan

Guitar tabs

Tuning: Standard (E A D G B E)

Intro:
  1 D#m          2 D#m
Eb|-------------------------|--0-----------------------|
Bb|--------0----------------|------------------0-------|
Gb|-----------------0-------|-----------0--------------|
Db|--------2-----------2----|-------2-------------0----|
Ab|-------------------------|--------------------------|
Eb|--0-----------0----------|--0------------0----------|


  3 B           4 D#m
Eb|------------------------|------------------------|
Bb|-------1----------------|--0---------------------|
Gb|----------------0-------|----------------0-------|
Db|-------2-----------2----|-------2-----------0----|
Ab|--3---------------------|------------------------|
Eb|-------------3----------|--0----------0----------|

  5 B           6 D#m
Eb|------------------------|------------------------|
Bb|-------1--------1-------|--0---------------------|
Gb|----------0-------------|----------------0-------|
Db|-------2-----------2----|-------2----------------|
Ab|--3---------------------|------------------------|
Eb|-------------3----------|--0----------0-----3----|

  7 D#m           8  D#m
Eb|--------------------------|--------------------------|
Bb|--------------------------|--------------------------|
Gb|------------------0-------|------------------0-------|
Db|-------0h-2---------------|-------0h-2---------------|
Ab|--------------------------|--------------------------|
Eb|--0------------0-----3----|--0------------0-----3----|

  9 D#m          10 D#m
Eb|-------------------------|--0-----------------------|
Bb|--------0----------------|--------------------------|
Gb|-----------------0-------|------------------0-------|
Db|--------2-----------2----|-------2-------------0----|
Ab|-------------------------|--------------------------|
Eb|--0-----------0----------|--0------------0----------|

  11 D#m          12 D#m
Eb|-------------------------|--0-----------------------|
Bb|--------0----------------|--------------------------|
Gb|-----------------0-------|------------------0-------|
Db|--------2-----------2----|-------2-------------0----|
Ab|-------------------------|--------------------------|
Eb|--0-----------0----------|--0------------0----------|


Verses:
 13 D#m           14 D#m
Eb|-------------------------|-----------------------|
Bb|--------0----------------|--------0--------------|
Gb|-----------------0-------|-----------------0-----|
Db|--------2-----------2----|--------2--------------|
Ab|-------------------------|--2--------------------|
Eb|--0-----------0----------|--------------0-----2--|
   The sun is going     down         be-

  15 F#          16 F#'          17 F#'
Eb|------------------------|------------------------|------------------------|
Bb|-------0----------------|-------3----------------|--3-------------3-------|
Gb|----------------0----0--|----------------0-------|----------0-------------|
Db|-------0-----------0----|-------0-----------0----|-------0----------------|
Ab|------------------------|------------------------|------------------------|
Eb|--3----------3----------|--3----------3----------|--3----------3-----2----|
-hind a tattoo     tree

 18 D#m           19 D#m
Eb|-------------------------|--0--------------------|
Bb|--------0----------------|-----0-----------0-----|
Gb|-----------------0-------|----------0------------|
Db|--------2-----------2----|--------2--------------|
Ab|-------------------------|--2--------------------|
Eb|--0-----------0----------|--------------0-----2--|
And the simple act of an    oar's stroke put

  20 F#          21 F#'          22 F#'
Eb|------------------------|------------------------|------------------------|
Bb|-------0----------------|-------3----------------|--3-------------3-------|
Gb|----------------0----0--|----------------0-------|----------0-------------|
Db|-------0-----------0----|-------0-----------0----|-------0----------------|
Ab|------------------------|------------------------|------------------------|
Eb|--3----------3----------|--3----------3----------|--3----------3-----2----|
diamonds in the     sea

 23 D#m           24 D#m
Eb|-------------------------|-----------------------|
Bb|--------0----------------|--0--------------0-----|
Gb|-----------------0-------|-----0----0------------|
Db|--------2-----------2----|--------2----------0---|
Ab|-------------------------|--2--------------------|
Eb|--0-----------0----------|--------------0--------|
 And all because of the    phosphorus

  25 B           26 D#m         27 B
Eb|------------------------|------------------------|-------------------------|
Bb|-------1----------------|--0----0----------------|-----------1-------------|
Gb|--0-------------0-------|----------------0-------|-----0-----------0-------|
Db|-------2-----------2----|-------2-----------0----|--------2-----------2----|
Ab|--3---------------------|------------------------|--3----------------------|
Eb|-------------3----------|--0----------0----------|--------------3----------|
there in      quantity          As I dug you digging -

  28 D#m         29 D#m
Eb|------------------------|--------------------------|
Bb|--0---------------------|--------------------------|
Gb|----------------0-------|-------------------0------|
Db|-------2----------------|-------0h-2------------2--|
Ab|------------------------|--------------------------|
Eb|--0----------0-----3----|--0------------0----------|
 me        in Mexico

  30 D#m         31 D#m
Eb|------------------------|--------------------------|
Bb|----------0-------------|--------------------------|
Gb|----0-----------0-------|-------------------0------|
Db|-------2----------------|-------0h-2------------2--|
Ab|-------------2----------|--------------------------|
Eb|--0----------------3----|--0------------0----------|

  32 D#m         33 D#m
Eb|------------------------|--------------------------|
Bb|----------0-------------|--------------------------|
Gb|----0-----------0-------|-------------------0------|
Db|-------2----------------|-------0h-2------------2--|
Ab|-------------2----------|--------------------------|
Eb|--0----------------3----|--0------------0----------|

  34 D#m
Eb|------------------------|
Bb|----------0-------------|
Gb|----0-----------0-------| Verse reprise
Db|-------2----------------|
Ab|-------------2----------|
Eb|--0----------------3----|


Outro:
  35           36 1   2  3   4
Eb|------------------------|-------------------------|
Bb|-----------0---0---0----|---------0----0----------|
Gb|--------2----2---2------|---2h-4----4-------------|
Db|-----2------------------|-------------------------|
Ab|------------------------|-------------------------|
Eb|--0---------------------|-------------------------|



************************************

| b Bend
| h Hammer-on

************************************

Other versions of Sand And Foam

Alternative guitar chords and tabs for Sand And Foam by Donovan

Find guitar tabs and chords

A B C D E F G H I J K L M N O P Q R S T U V W X Y Z #