Log in

One click and you are in

Login with Facebook Login with Google

Why sign up and log in

Guitar Tabs Explorer
Donovan tabs for Oh deed i do

Guitar tabs

Oh Deed I Do

written by Bert Jansch
from Donovan album Fairytale
tabbed by Adrian Dumchus (dumchusa@aol.com)

played in Standard Tuning (A chord diagramE MajorE A chord diagramA augmentedA A chord diagramD MajorD A chord diagramG+G A chord diagramBB A chord diagramE MajorE from low to high)

This song is relatively easy to play once you get the pattern
and timing down, but is still a great song to mess around with.
The tabbed portion is basically the whole thing.
(Excuse some of the chord names, I have no idea what they are)

Intro:

    A chord diagramC majorC                 A chord diagramC majorC

E-|-3-----3---------|-3-----3---------|
B-|---1-------1-----|---1-------1-----|
G-|-----0-------0---|-----0-------0---|   2x
D-|-----------------|-----------------|
A-|-3-------3-------|-3-------3-------|
E-|-----------------|-----------------|



Verse:

    A chord diagramC majorC                 A chord diagramC majorC                 A chord diagramC7C7               A chord diagramC7C7

E-|-3-----3---3-----|-3-----3---1-----|-1^0---0---------|-0-----0---------|
B-|---1-------------|---1---------1---|-----------1-----|---1-------1-----|
G-|-----0-------0---|-----0-----------|-----3-------3---|-----3-------3---|
D-|-----------------|-----------------|-----------------|-----------------|
A-|-3-------3-------|-3-------3-------|-3-------3-------|-3-------3-------|
E-|-----------------|-----------------|-----------------|-----------------|
 ..makes no difference...

    A chord diagramFF                 C#/Fsus ?         A chord diagramC7C7                A chord diagramC7C7

E-|-1-----1---------|-1-----1---------|-1^0---0---------|-0-----0---------|
B-|---1-------1-----|---1-------1-----|-----------1-----|---1-------1-----|
G-|-----2-------2---|-----3-------3---|-----3-------3---|-----3-------3---|
D-|-----------------|-----------------|-----------------|-----------------|
A-|-3-------3-------|-4-------4-------|-3-------3-------|-3-------3-------|
E-|-----------------|-----------------|-----------------|-----------------|
 ..need your love...

Other versions of Oh Deed I Do

Oh deed I do1Tabs

Almost there ...

Sign in to get your own page with links to favourite songs and more. You are just one click away...

Login with Facebook Login with Google