Lady Of The Stars by Donovan

Lady Of The Stars bass tab by Donovan

Bass tabs

Tabbed by: 6METAL6BASSIST6
E-mail: petergriffinav@gmail.com

Tuning: EADG

0:59

G|------------|
D|5---/-------|
A|------------|
E|------------|

G|12----------------------------------------------------------------------12------9-----7---4-----|
D|------------------------------------------------------------------------------------------------|
A|------------------------------------------------------------------------------------------------|
E|------------------------------------------------------------------------------------------------|

1:07

G|------------------------------------------------------------------------------------------------|
D|5-----------------------------------------------------------------------------------------------|
A|------------------------------------10----\-----3-----------------------------------------------|
E|------------------------------------------------------------------------------------------------|

G|------------------------------------------------------------------------------------------------|
D|------------------------------------------------------------------------------------------------|
A|------------------------------------------------3-----------------------------------------------|
E|3-----------------------------------------------------------------------------------------------|

G|------------------------------------------------------------------------------------------------|
D|------------------------4-----------------------2-----------------------------------0-----------|
A|------------------------------------------------------------------------------------------------|
E|3-----------------------------------------------------------------------------------------------|

G|------------------------------------------------|
D|------------------------------------------------|
A|3-----------------------------------------------|
E|------------------------------------------------|

1:32

G|------------------------------------------------------------------------------------------------|
D|------------------------------------------------------------------------------------------------| x2
A|------------------------------------------------3-----------------------------------------------|
E|3-----------------------------------------------------------------------------------------------|

G|------------------------------------------------------------------------------------------------|
D|------------------------------------------------------------------------------------------------|
A|------------------------------------------------3-----------------------3-----------2-----------|
E|3-----------------------------------------------------------------------------------------------|

1:53

G|------------------------------------------------------------------------------------------------|
D|----------------------/-7-----------------------------------------------------------------------|
A|0-----------------------------------------7-----5---------------------0-5-----5---------3-------|
E|------------------------------------------------------------------------------------------------|

G|------------------------------------------------------------------------------------------------|
D|------------------------7-----------------------------------------------------------------------|
A|0-----------------------------7-----------7-----5-----------3-----------2-----------0-----------|
E|------------------------------------------------------------------------------------------------|

2:06

G|------------------------------------------------------------------------------------------------|
D|------------------------------------------------------------------------------------------------|
A|------------------------------------------------3-----------------------3-----3-----------------|
E|3---------------------------------------------------------------------3-------------------------|

G|------------------------------------------------------------------------------------------------|
D|------------------------------------------------------------------------------------------------|
A|------------------------------------------------3-----------------------3-----3-----------3-----|
E|3---------------------------------------------------------------------3-------------------------|

G|------------------------------------------------------------------------------------------------|
D|------------------5-----4-----------------4-----2-----------------------2-----------0-----------|
A|------------------------------------------------------------------------------------------------|
E|3-----------------------------------------------------------------------------------------------|

G|------------------------------------------------|
D|------------------------------------------------|
A|3-----------------------------------------------|
E|------------------------------------------------|

2:30

G|------------------------------------------------------------------------------------------------|
D|------------------------------------------------------------------------------------------------|
A|------------------------------------------------3-----------------------3-----3-----------------|
E|3-----------------------3-----3---------------------------------------3-------------------------|

G|------------------------------------------------------------------------------------------------|
D|------------------------------------------------------------------------------------------------|
A|------------------------------------------------3-----------------------3-----3-----------3-----|
E|3---------------------0-3-----3-----------3---------------------------3-------------------------|

G|------------------------------------------------------------------------------------------------|
D|------------------------------------------------------------------------------------------------|
A|------------------------------------------------3-----------------------3-----------2-----------|
E|3---------------------0-3-----3-----------3-----------------------------------------------------|

2:50

G|------------------------------------------------------------------------------------------------|
D|----------------------/-7-----------------------------------------------------------------------|
A|0-----------------------------------------7-----5---------------------------------------3-------|
E|------------------------------------------------------------------------------------------------|

G|------------------------------------------------------------------------------------------------|
D|------------------------7-----------------------------------------------------------------------|
A|0---------------------7-------------------7-----5-----------3-----------2-----------0-----------|
E|------------------------------------------------------------------------------------------------|

3:03

G|------------------------------------------------------------------------------------------------|
D|------------------------------------------------------------------------------------------------|
A|------------------------------------------------3-----------------------3-----3-----------------|
E|3---------------------------------------------------------------------3-------------------------|

G|------------------------------------------------------------------------------------------------|
D|------------------------------------------------------------------------------------------------|
A|------------------------------------------------3-----------------------3-----3-----------3-----|
E|3---------------------0-3-----3-----------3---------------------------3-------------------------|

G|------------------------------------------------------------------------------------------------|
D|------------------------4-----------------------2-----------------------------------0-----------|
A|------------------------------------------------------------------------------------------------|
E|3-----------------------------------------------------------------------------------------------|

G|------------------------------------------------|
D|------------------------------------------------|
A|3-----------------------------------------------|
E|------------------------------------------------|

3:27

G|------------------------------------------------------------------------------------------------|
D|------------------------------------------------------------------------------------------------| x2
A|------------------------------------------------3-----------------------3-----3-----------------|
E|3---------------------0-3-----3-----------3---------------------------3-------------------------|

G|------------------------------------------------------------------------------------------------|
D|------------------------------------------------------------------------------------------------|
A|------------------------------------------------3-----------------------3-----3-----------3-----|
E|3---------------------0-3-----3-----------3---------------------------3-------------------------|

G|------------------------------------------------------------------------------------------------|
D|------------------------------------------------------------0-----------2-----------4-----------|
A|------------------------------------------------3-----------------------------------------------|
E|3---------------------0-3-----3-----------3-----------------------------------------------------|

3:55

G|------------------------------------------------------------------------------------------------|
D|------------2-----------0-----------------------------------------------------------------------|
A|------------------------------------2-----------3-----------3-----------3-----3-----2-----0-----|
E|3---------------------------------------------------------------------3-------------------------|

G|------------------------------------------------------------------------------------------------|
D|------------------------------------0-----------------------0-----0-----2-----2-----4-----------|
A|------------0-----------2-----------------------3-----------------------------------------------|
E|3-----------------------------------------------------------------------------------------------|

G|------------------------------------------------------------------------------------------------|
D|------------2-----------0-----------------------------------------------------------------------|
A|------------------------------------2-----------3-----------2-----------0-----------2-----------|
E|3-----------------------------------------------------------------------------------------------|

G|------------------------------------------------------------------------------------------------|
D|------------------------------------------0-----------------------------------------------------|
A|------------------------------------2-----------3-----------------------------------------------|
E|3---------------------0-3-----3-----------------------------------------------------------------|

G|------------------------------------------------|
D|------------------------------------------------|
A|------------------------------------------------|

Find guitar tabs and chords

A B C D E F G H I J K L M N O P Q R S T U V W X Y Z #