I Like You by Donovan

I Like You tab by Donovan

Guitar tabs

this version can be found on Donovan's Cosmic Wheels album track 8

Written by Donovan Leitch, Transcribed by Kevin Carlton

Donovan: Cosmic Wheels
pub Sony Music Corporation LC 13223




Introduction (repeat 6 times)

  E         B
  |  |  |  |   |  |  |  |

E----0-------------|----7-------------|
B------0-----------|------7-----------|
G--------1---------|--------8---------|
D----------2-------|----------9-------|
A------------------|------------------|
E--0---------------|--7---------------|



Verse (repeat 4 times: once for each line of lyric)
  E         B
  |  |  |  |   |  |  |  |

E----0-------------|----7-------------|
B------0-----------|------7-----------|
G--------1---------|--------8---------|
D----------2-------|----------9-------|
A------------------|------------------|
E--0---------------|--7---------------|

      You're such a good ...
      I'd hate to have you ...
      From the first time ...
      I knew you were the one ....


  A         G#m        F#m
  |  |  |  |   |  |  |  |   |  |  |  |

E----5-------------|----4-------------|----2-------------|
B------5-----------|------4-----------|------2-----------|
G--------6---------|--------4---------|--------2---------|
D----------7-------|----------6-------|----------4-------|
A------------------|------------------|------------------|
E--5---------------|--4---------------|--2---------------|

    You liked me  I liked you     you liked me


 E         B
 |  |  |  |   |  |  |  |

E----0-------------|----7-------------|
B------0-----------|------7-----------|
G--------1---------|--------8---------|
D----------2-------|----------9-------|
A------------------|------------------|
E--0---------------|--7---------------|

   I liked you


 E         B
 |  |  |  |   |  |  |  |

E----0-------------|----7-------------|
B------0-----------|------7-----------|
G--------1---------|--------8---------|
D----------2-------|----------9-------|
A------------------|------------------|
E--0---------------|--7---------------|



Chorus

For the first part strum only where chord is named

B            B

Holding my heart in the palm of your hand

B            F#
Heading out west for the Indian land.


F#            F#
Dreams of the golden boy jangling your mind


F#          B
Burning your body to fill in the time.



For second part use same chord sequence but strum in rhythm.

Sad city sister ....


Repeat introduction

verse 2

repeat chorus

introduction fades out.

Find guitar tabs and chords

A B C D E F G H I J K L M N O P Q R S T U V W X Y Z #