Cosmic Wheels  by Donovan

Cosmic Wheels chords by Donovan (Ver. 2)

Guitar chords with lyrics

Tuning: Standard tuning


SONG:  COSMIC WHEELS
ARTIST: DONOVAN LEITCH
TAB BY: DON CZARSKI
EMAIL: GUITARZAN7@HOTMAIL.COM


           COSMIC WHEELS
          DONOVAN LEITCH


INTRO:

  G F Eb C Eb C Eb C  G F Eb C Eb C Eb C
E ----------------------------------------------
B ----------------------------------------------
G ----------------------------------------------
D ----------------------------------------------
A -10-8-6-----6---6-------10-8-6-----6---6------
E ---------8----6---6-------------8----6---6----


VERSE:
 C       F
God is playing marbles,
      C        G
With his planets and his stars.
  C       F
Creating havoc through my life,
     C      G
With his influence on Mars.


CHORUS:
         C    Bb    C
That's why I'm stumbling down the highway
    F   (Eb)
On my boots of steel.

 Eb C Eb C Eb C Eb C
E ------------------
B ------------------
G ------------------
D ------------------
A --6---6---6---6---
E ----8---8---8---8-

       C    Bb    C
I should be rolling down the skyway
    F    (Eb)
On my Cosmic Wheels.

 Eb C Eb C Eb C Eb C
E ------------------
B ------------------
G ------------------
D ------------------
A --6---6---6---6---
E ----8---8---8---8-

(F F  Eb  C Eb C Eb C Eb C)
Cosmic Wheels,

 F F Eb C Eb C Eb C Eb C
E ----------------------
B ----------------------
G ----------------------
D ----------------------
A -8-8--6---6---6---6---
E --------8---8---8---8-

(F F  Eb  C Eb C Eb C Eb C)
Cosmic Wheels,

 F F Eb C Eb C Eb C Eb C
E ----------------------
B ----------------------
G ----------------------
D ----------------------
A -8-8--6---6---6---6---
E --------8---8---8---8-


(F F  Eb  C Eb C Eb C Eb C)
Cosmic Wheels,

 F F Eb C Eb C Eb C Eb C
E ----------------------
B ----------------------
G ----------------------
D ----------------------
A -8-8--6---6---6---6---
E --------8---8---8---8-


VERSE:
     C            F
In the present position of the planets,
    C         G
It's impossible for me to say.
 C          F
Just when I find my course again,
      C       G
With these boulders in my way.


CHORUS:
       C    Bb    C
I should be rolling down the skyway
    F   (Eb)
On my Cosmic Wheels.

 Eb C Eb C Eb C Eb C
E ------------------
B ------------------
G ------------------
D ------------------
A --6---6---6---6---
E ----8---8---8---8-


       C    Bb    C
Instead of stumbling down this highway
    F   (Eb)
On my boots of steel.

 Eb C Eb C Eb C Eb C
E ------------------
B ------------------
G ------------------
D ------------------
A --6---6---6---6---
E ----8---8---8---8-


(F F  Eb  C Eb C Eb C Eb C)
Cosmic Wheels,

 F F Eb C Eb C Eb C Eb C
E ----------------------
B ----------------------
G ----------------------
D ----------------------
A -8-8--6---6---6---6---
E --------8---8---8---8-
(F F  Eb  C Eb C Eb C Eb C)
Cosmic Wheels,

 F F Eb C Eb C Eb C Eb C
E ----------------------
B ----------------------
G ----------------------
D ----------------------
A -8-8--6---6---6---6---
E --------8---8---8---8-

(F F  Eb  C Eb C Eb C Eb C)
Cosmic Wheels,

 F F Eb C Eb C Eb C Eb C
E ----------------------
B ----------------------
G ----------------------
D ----------------------
A -8-8--6---6---6---6---
E --------8---8---8---8-


INSTRUMENTAL:
C F C G
C F C G


CHORUS:
         C    Bb    C
That's why I'm stumbling down the highway
    F   (Eb)
On my boots of steel.

 Eb C Eb C Eb C Eb C
E ------------------
B ------------------
G ------------------
D ------------------
A --6---6---6---6---
E ----8---8---8---8-

       C    Bb    C
I should be rolling down the skyway
    F   (Eb)
On my Cosmic Wheels.

 Eb C Eb C Eb C Eb C
E ------------------
B ------------------
G ------------------
D ------------------
A --6---6---6---6---
E ----8---8---8---8-


(F F  Eb  C Eb C Eb C Eb C)
Cosmic Wheels,

 F F Eb C Eb C Eb C Eb C
E ----------------------
B ----------------------
G ----------------------
D ----------------------
A -8-8--6---6---6---6---
E --------8---8---8---8-

(F F  Eb  C Eb C Eb C Eb C)
Cosmic Wheels,

 F F Eb C Eb C Eb C Eb C
E ----------------------
B ----------------------
G ----------------------
D ----------------------
A -8-8--6---6---6---6---
E --------8---8---8---8-

(F F  Eb  C Eb C Eb C Eb C)
Cosmic Wheels,

 F F Eb C Eb C Eb C Eb C
E ----------------------
B ----------------------
G ----------------------
D ----------------------
A -8-8--6---6---6---6---
E --------8---8---8---8-



VERSE:
    C       F
Mmm mm God is playing marbles,
      C        G
With his planets and his stars.
  C       F
Creating havoc through my life,
       C      G
Through his influence on Mars.


CHORUS:
         C    Bb    C
That's why I'm stumbling down the highway
    F   (Eb)
On my boots of steel.

 Eb C Eb C Eb C Eb C
E ------------------
B ------------------
G ------------------
D ------------------
A --6---6---6---6---
E ----8---8---8---8-

       C    Bb    C
I should be rolling down the skyway
    F   (Eb)
On my Cosmic Wheels.

 Eb C Eb C Eb C Eb C
E ------------------
B ------------------
G ------------------
D ------------------
A --6---6---6---6---
E ----8---8---8---8-


OUTRO:
(F F  Eb  C Eb C Eb C Eb C)
Cosmic Wheels,

 F F Eb C Eb C Eb C Eb C
E ----------------------
B ----------------------
G ----------------------
D ----------------------
A -8-8--6---6---6---6---
E --------8---8---8---8-

(F F  Eb  C Eb C Eb C Eb C)
Cosmic Wheels, celestial wheels

 F F Eb C Eb C Eb C Eb C
E ----------------------
B ----------------------
G ----------------------
D ----------------------
A -8-8--6---6---6---6---
E --------8---8---8---8-

(F F  Eb  C Eb C Eb C Eb C)
Cosmic Wheels, celestial wheels

 F F Eb C Eb C Eb C Eb C
E ----------------------
B ----------------------
G ----------------------
D ----------------------
A -8-8--6---6---6---6---
E --------8---8---8---8-

(F F  Eb  C Eb C Eb C Eb C)
Cosmic Wheels, celestial wheels

 F F Eb C Eb C Eb C Eb C
E ----------------------
B ----------------------
G ----------------------
D ----------------------
A -8-8--6---6---6---6---
E --------8---8---8---8-

(F F  Eb  C Eb C Eb C Eb C)
Cosmic Wheels, celestial wheels

 F F Eb C Eb C Eb C Eb C
E ----------------------
B ----------------------
G ----------------------
D ----------------------
A -8-8--6---6---6---6---
E --------8---8---8---8-

(F F  Eb  C Eb C Eb C Eb C)
Cosmic Wheels, celestial wheels

 F F Eb C Eb C Eb C Eb C
E ----------------------
B ----------------------
G ----------------------
D ----------------------
A -8-8--6---6---6---6---
E --------8---8---8---8-

(F F  Eb  C Eb C Eb C Eb C)
Cosmic Wheels, celestial wheels

 F F Eb C Eb C Eb C Eb C
E ----------------------
B ----------------------
G ----------------------
D ----------------------
A -8-8--6---6---6---6---
E --------8---8---8---8-

(F F  Eb  C Eb C Eb C Eb C)
Cosmic Wheels, celestial wheels

 F F Eb C Eb C Eb C Eb C
E ----------------------
B ----------------------
G ----------------------
D ----------------------
A -8-8--6---6---6---6---
E --------8---8---8---8-

(F F  Eb  C Eb C Eb C Eb C)
Cosmic Wheels, celestial wheels

 F F Eb C Eb C Eb C Eb C
E ----------------------
B ----------------------
G ----------------------
D ----------------------
A -8-8--6---6---6---6---
E --------8---8---8---8-

Other versions of Cosmic Wheels

Alternative guitar chords and tabs for Cosmic Wheels by Donovan

Find guitar tabs and chords

A B C D E F G H I J K L M N O P Q R S T U V W X Y Z #