Age Of Treason by Donovan

Age Of Treason tab by Donovan

Guitar tabs

[Intro]

e|----------------|----------------|
B|----0-----------|0h1-----0-------|
G|----------0-----|------0---------|
D|----0-------0---|----2-----------|
A|----------------|0h3-------------|
E|3-------3-------|--------3-------|


[Verse]

(Just repeat this for each of the verses)

e|----------------|----------------|----------------|-----------(2)--|----------------|
B|----0-----------|0h1-----0-------|----------------|----1-------3---|------0---------|
G|----------0-----|------0---------|----------------|------0---2-----|--0-------0-----|
D|----0-------0---|----2-----------|----------------|--------0-------|----2-------2---|
A|----------------|0h3-------------|--------0---2---|3---------------|----------------|
E|3-------3-------|--------3-------|----3-----------|----------------|0-------0-------|

e|3-----3---0-----|----------------|----------------|----------------|----------------|
B|----------------|3-----0---------|4---------------|--------------1-|------1---------|
G|----0-------0---|----------0-----|--4---2---4-----|0---------0-----|--0-------0-----|
D|----------------|----0-------0---|----4---------4-|----2-------2---|----2-------2---|
A|3-------3-------|----------------|2-------2---2---|3-------3-------|3-------3-------|
E|----------------|3-------3-------|----------------|----------------|----------------|

e|0---------------|0---------------|0-------2-------|3-----0---------|----------------|
B|----------1-----|----------------|--1-------3-----|--0-----0-------|--1-------3---0-|
G|------0---------|----------------|----0-------2---|----0-----0-----|----0-------2---|
D|----2-------2---|----------------|--------0-------|------------0---|--------0-------|
A|3-------3-------|3---------------|3---------------|----------------|3---------------|
E|----------------|----------------|----------------|0---------------|----------------|

e|----------------|----0-----------|----------------|------------2---|------------2---|
B|----------------|1-------0-------|--1-------1-----|--------3-------|--------3-------|
G|--0-------------|--------------0-|------2-------0-|----2-----------|----2-----------|
D|----2-----------|------------0---|----2-------2---|----------------|0---------------|
A|--------0---2---|3-------2-------|0---------------|----------------|----------------|
E|0---------------|----------------|--------3-------|2---------------|----------------|

e|----------------|------------2---|------------2---|----------------|
B|------1---------|--------3-------|--------3-------|------1---------|
G|--0-------0-----|----2-----------|----2-----------|--0-------0-----|
D|----2-----------|----------------|0---------------|----2-----------|
A|3-------2---0---|----------------|----------------|3-------2---0---|
E|----------------|2---------------|----------------|----------------|


[Outro]

e|----0-----------|----------------|------------2---|------------2---|
B|1-------0-------|--1-------1-----|--------3-------|--------3-------|
G|--------------0-|------2-------0-|----2-----------|----2-----------| x4
D|------------0---|----2-------2---|----------------|0---------------|
A|3-------2-------|0---------------|----------------|----------------|
E|----------------|--------3-------|2---------------|----------------|

e|----------------|----------------|----3-----------|
B|------1---------|----------------|3---------------|
G|--0-------0-----|----0-------0---|----------------|
D|----2-----------|--------0-------|----------------|
A|3-------2---0---|----------------|----------------|
E|----------------|3---------------|----------------|


[Verse 1]

On a lone and windy hilltop beneath a roof of tin
In a little wallpapered bedroom I done my growin'.
'Twas there I dreamt my dreams, I hung my jeans
And wandered through my puberty as all do.


[Verse 2]

My mother was a tight nut bound up with false guilt
Strapped up in her fearing wall she had built.
The independent girl in a dark and cruel world
She'd lost the way to say, "OK, now lay back".


[Verse 3]

We disagreed on most things, I shouted peace and love
The family is mankind, the symbol of the dove.
She only saw the surface of things before her face
But I was young and argued on for hours.


[Verse 4]

My father he liked poetry, a scholar he might have made.
Had nothing, born a poor boy barefoot and underpaid
So the man worked with his hands up and down the land,
His dreams forgot he thought that I must follow.


[Verse 5]

With his marks as worker's wisdom he'd read a thing or two
He once had been a Mason but he never followed through.
Always kind and thoughtful, smelling of mushy oil
And he read me poetry of visionaries.


[Verse 6]

I flunk my way to college, a looser kind of school
But we bobbed and played time arty, feeling cool
Just to live an artists diggin' the ravin' scene
Reading Kerouac and Ginsberg well deuced.


[Verse 7]

I was not academic, Art and English neat,
The history of mankind I liked that a bit.
And what was I to do? The choices they were few,
I done right disgrace to the working classes


[Outro]

I done right disgrace to the working classes
I done right disgrace to the working classes
I done right disgrace to the working classes


************************************
|(n)  Ghost note
|h   Hammer-on

Other versions of Age Of Treason

Alternative guitar chords and tabs for Age Of Treason by Donovan

Find guitar tabs and chords

A B C D E F G H I J K L M N O P Q R S T U V W X Y Z #