Log in

One click and you are in

Login with Facebook Login with Google

Why sign up and log in

Guitar Tabs Explorer
The Donnas tabs for Teenage runaway

Guitar tabs

Teenage Runaway - The Donnas - The Donnas (1997)


Intro/Chorus
e|--------------|--------|--------|---------|
b|--------------|--------|--------|---------|
g|--4-----9-----|-----9--|--------|--9--11--|
d|--4--4--9--4--|--9--9--|--8--9--|--9--11--|
a|--2--4--7--4--|--9--7--|--8--9--|--7---9--|
A chord diagramE MajorE|-----2-----2--|--7-----|--6--7--|---------|


Verse
e|------------|
b|------------|
g|-----9--11--|
d|--9--9--11--|
a|--9--7---9--|
A chord diagramE MajorE|--7---------|


Pre-Chorus/Outro
e|---------------|
b|---------------|
g|--------9--11--|
d|--9--7--9--11--|
a|--9--7--7---9--|
A chord diagramE MajorE|--7--5---------|

Other versions of Teenage Runaway

Teenage runawayChords

Almost there ...

Sign in to get your own page with links to favourite songs and more. You are just one click away...

Login with Facebook Login with Google