Log in

One click and you are in

Login with Facebook Login with Google

Why sign up and log in

Guitar Tabs Explorer
The Donnas bass tabs for Take it off

Bass tabs

Band:The Donnas
Album:Spend The Night

Tabbed by jarnah fletcher
Intro(bass starts at 0:12)
G:------------------------------------------------------------------|
D:------------------------------------------------------------------|
A:-22222222222222222222222222222222222222222222222222222222---------|x1
E:---------------------------------------------------------3-335-55-|


Verse 1
G:----------------------------------|
D:----------------------------------|
A:-222222222222222222222222---------|x2
E:-------------------------3-335-55-|

G:-----------------|
D:-----------------|
A:-----------------|x1
E:-2-2-2-2-2-2-2-2-|


Chorus
G:----------------------------------|
D:----------------------------------|
A:-222222225-------77777777---------|x2
E:-----------555555--------3-335-55-|


Verse 2
G:----------------------------------|
D:----------------------------------|
A:-222222222222222222222222---------|x3
E:-------------------------3-335-55-|

G:-----------------|
D:-----------------|
A:-----------------|x1
E:-2-2-2-2-2-2-2-2-|
Chorus
G:----------------------------------|
D:----------------------------------|
A:-222222225-------77777777---------|x2
E:-----------555555--------3-335-55-|


Solo
G:------------------| |----------------------------------|
D:------------------| |----------------------------------|
A:------------------|x1|-222222225-55555522222222---------|x2
E:-2222222222222222-| |-------------------------3-335555-|


Bridge
G:----------------------------------|
D:----------------------------------|
A:----------------------------------|x3
E:-33333333555555557777777777777777-|

G:----------------------------------|
D:----------------------------------|
A:----------------------------------|x1
E:-333333335555555522-22-22-22-2-2--|


Chorus/Outro
G:----------------------------------|
D:----------------------------------|
A:-222222225-------77777777---------|x3
E:-----------555555--------3-335-55-|

G:------------------------------------------|
D:------------------------------------------|
A:-222222225-------77777777-----------------|x1
E:-----------555555--------3---3---5~~~-----|

i think this is right im not sure.......just play and fix as you please!:P
ⓘ Bass guitar tab for 'Take It Off ' by The Donnas, a garage band formed in 1992 from Palo Alto, California, USA. They are no longer active.

Almost there ...

Sign in to get your own page with links to favourite songs and more. You are just one click away...

Login with Facebook Login with Google