Log in

One click and you are in

Login with Facebook Login with Google

Why sign up and log in

Guitar Tabs Explorer
The Donnas tabs for Save me

Guitar tabs

Album: Bitchin'
Tabbed By: Iggy (Reptiliahasnoend@yahoo.com)


Intro
e-------------------------------|
B-------------------------------|
G-11-11-10---11-11-11--8-9---8--|
D-11-11-11---11-11-11--9-9---9--|
A-------------------------------|
E-------------------------------|
Verse
Keep playing the intro until Brett sings
"Turn me off"
e--------------|
B--------------|
G--------------|
D-9--4--2--4-4-|
A-9--4--2--4-4-|
E-7--2--0--2-2-|


Pre-Chorus
"more more can't slow down..."
e--------------|
B--------------|
G-7---9---11---|
D-7---9---11---|
A-5---7----9---|
E--------------|

"Feels good when it's not allowed"
e-------------------------|
B-------------------------|
G-------------6--6--6--6--|
D-7--7--7--7--6--6--6--6--|
A-7--7--7--7--4--4--4--4--|
E-5--5--5--5--------------|

"more more don't ask why..."
e--------------|
B--------------|
G-7---9---11---|
D-7---9---11---|
A-5---7----9---|
E--------------|

"gonna party till the day i die..."
e-------------------|
B-------------------|
G-------------------|
D-7--7--7--7--9-----|
A-7--7--7--7--9-----|
E-5--5--5--5--7-----|

Chorus
"Save me..."
e------------------|
B------------------|
G--------9---------|
D-11--7--9--9--7-9-|
A-11--7--7--9--7-9-|
E--9--5-----7--5-7-|______
                          \
"Save me save me..."       \
e----------------|          X2
B----------------|         /
G----------------|________/
D-11--7--2-2-2-4-|
A-11--7--2-2-2-4-|
E--9--5--0-0-0-2-|


Verse
e-------------------------------|
B-------------------------------|
G-11-11-10---11-11-11--8-9---8--|
D-11-11-11---11-11-11--9-9---9--|
A-------------------------------|
E-------------------------------|


Verse
Keep playing the intro until Brett sings
"Keep it coming"
e--------------|
B--------------|
G--------------|
D-9--4--2--4-4-|
A-9--4--2--4-4-|
E-7--2--0--2-2-|


Pre-Chorus
"more more can't slow down..."
e--------------|
B--------------|
G-7---9---11---|
D-7---9---11---|
A-5---7----9---|
E--------------|

"Feels good when it's not allowed"
e-------------------------|
B-------------------------|
G-------------6--6--6--6--|
D-7--7--7--7--6--6--6--6--|
A-7--7--7--7--4--4--4--4--|
E-5--5--5--5--------------|

"more more don't ask why..."
e--------------|
B--------------|
G-7---9---11---|
D-7---9---11---|
A-5---7----9---|
E--------------|

"gonna party till the day i die..."
e-------------------|
B-------------------|
G-------------------|
D-7--7--7--7--9-----|
A-7--7--7--7--9-----|
E-5--5--5--5--7-----|


Chorus
"Save me..."
e------------------|
B------------------|
G--------9---------|
D-11--7--9--9--7-9-|
A-11--7--7--9--7-9-|
E--9--5-----7--5-7-|______
                          \
"Save me save me..."       \
e----------------|          X2
B----------------|         /
G----------------|________/
D-11--7--2-2-2-4-|
A-11--7--2-2-2-4-|
E--9--5--0-0-0-2-|

e-------------------------------|
B-------------------------------|
G-11-11-10---11-11-11--8-9---8--|
D-11-11-11---11-11-11--9-9---9--|
A-------------------------------|
E-------------------------------|


Solo
e---------------------------------------------|
B-------------------------------14------------|
G----------9-11-11--11-9-11--11----13-13^(15)-|
D-11-11-11------------------------------------|
A---------------------------------------------|
E---------------------------------------------|

e----------------------------------------|
B-11h14p11----11h14p11----11h14p11----11-|
G----------13----------13----------13----|
D----------------------------------------|
A----------------------------------------|
E----------------------------------------|

e----------------------------|
B-14^(16)-14-12--14-12-11----|
G-------------------------11-|
D----------------------------|
A----------------------------|
E----------------------------|

e-14p11-------------|
B-------14p11-------|
G-------------13p11-|X4
D-------------------|
A-------------------|
E-------------------|

e----14-13-11---------------|
B-11----------14-11-14^(16)-|
G---------------------------|
D---------------------------|
A---------------------------|
E---------------------------|

e---------------------|
B---------17p14-17p14-|
G-16^(18)-------------|
D---------------------|X as many times as you want.
A---------------------|
E---------------------|


Pre-Chorus
"more more can't slow down..."
e--------------|
B--------------|
G-7---9---11---|
D-7---9---11---|
A-5---7----9---|
E--------------|

"Feels good when it's not allowed"
e-------------------------|
B-------------------------|
G-------------6--6--6--6--|
D-7--7--7--7--6--6--6--6--|
A-7--7--7--7--4--4--4--4--|
E-5--5--5--5--------------|

"more more don't ask why..."
e--------------|
B--------------|
G-7---9---11---|
D-7---9---11---|
A-5---7----9---|
E--------------|

"gonna party till the day i die..."
e-------------------|
B-------------------|
G-------------------|
D-7--7--7--7--9-----|
A-7--7--7--7--9-----|
E-5--5--5--5--7-----|

e------------------|
B------------------|
G--------9---------|
D-11--7--9--9--7-9-|
A-11--7--7--9--7-9-|
E--9--5-----7--5-7-|

e----------------|
B----------------|
G----------------|
D-11--7--2-2-2-4-|
A-11--7--2-2-2-4-|
E--9--5--0-0-0-2-|


Chorus
"Save me..."
e------------------|
B------------------|
G--------9---------|
D-11--7--9--9--7-9-|
A-11--7--7--9--7-9-|
E--9--5-----7--5-7-|______
                          \
"Save me save me..."       \
e----------------|          X4
B----------------|         /
G----------------|________/
D-11--7--2-2-2-4-|
A-11--7--2-2-2-4-|
E--9--5--0-0-0-2-|

ends on this chord of the 4th time
e---|
B---|
G---|
D-4-|
A-4-|
E-2-|

finally i finished it. comments and complaints to
Reptiliahasnoend@yahoo.com. I hope to get I Can't Keep It a Secret
and possibly Have you no Pride out soon if no one's already done them.

Almost there ...

Sign in to get your own page with links to favourite songs and more. You are just one click away...

Login with Facebook Login with Google