Log in

One click and you are in

Login with Facebook Login with Google

Why sign up and log in

Guitar Tabs Explorer
The Donnas tabs for Rid of that girl

Guitar tabs with lyrics

Hope you enjoy it..

A-577xxx
D-101212xxx
E-x799xx

					A chord diagramD MajorD  A chord diagramA augmentedA A chord diagramE MajorE A chord diagramE MajorE A chord diagramE MajorE A chord diagramE MajorE A chord diagramE MajorE
|-----------------------------------------------------------------------|
|-----------------------------------------------------------------------|
|--------------------------------------------9-9-9-9-9------------------|
|--7------------------------------------12-7-9-9-9-9-9------------------|
|--7------------------------------------12-7-7-7-7-7-7------------------|
|--5------------------------------------10-5----------------------------|
	See that boy he looks so fine
					A chord diagramD MajorD  A chord diagramA augmentedA A chord diagramE MajorE A chord diagramE MajorE A chord diagramE MajorE A chord diagramE MajorE A chord diagramE MajorE A chord diagramE MajorE A chord diagramE MajorE A chord diagramE MajorE
|-----------------------------------------------------------------------|
|-----------------------------------------------------------------------|
|--------------------------------------------9-9-9-9-9-9-9-9------------|
|---------------------------------------12-7-9-9-9-9-9-9-9-9------------|
|---------------------------------------12-7-7-7-7-7-7-7-7-7------------|
|---------------------------------------10-5----------------------------|
    But hes got a girlfriend my oh my

Go Go Go


CHORUS:
(for this part, play the power chords for each regular chord indicated, repeat them until

the next chord comes up)


The first line would look like this
|--------------------------------------------------------|
|--------------------------------------------------------|
|--------------------------------------------------------|
|-------7-7-7-7-7-7-7-7-7-7-7----------------------------|
|-------7-7-7-7-7-7-7-7-7-7-7----------------------------|
|-------5-5-5-5-5-5-5-5-5-5-5----------------------------|

	A chord diagramA augmentedA
Im gonna hit her in the head
         A chord diagramD MajorD         A chord diagramE MajorE
Im gonna knock her down
         A chord diagramA augmentedA                        A chord diagramD MajorD    A chord diagramE MajorE
Im gonna drag her by the hair all over town

         A chord diagramA augmentedA               A chord diagramD MajorD           A chord diagramE MajorE
Im gonna get get get get rid of that girl
         A chord diagramA augmentedA               A chord diagramD MajorD           A chord diagramE MajorE
Im gonna get get get get rid of that girl
         A chord diagramA augmentedA               A chord diagramD MajorD           A chord diagramE MajorE      A chord diagramA augmentedA    A chord diagramD MajorD  A chord diagramA augmentedA
Im gonna get get get get rid of that girl tonight

|-----------------------------------------------------------------------|
|-----------------------------------------------------------------------|
|--------------------------------------------9-9-9-9-9------------------|
|--7------------------------------------12-7-9-9-9-9-9------------------|
|--7------------------------------------12-7-7-7-7-7-7------------------|
|--5------------------------------------10-5----------------------------|
Her hairs so blond and her nails' so long
|-----------------------------------------------------------------------|
|-----------------------------------------------------------------------|
|--------------------------------------------9-9-9-9-9-9-9-9------------|
|---------------------------------------12-7-9-9-9-9-9-9-9-9------------|
|---------------------------------------12-7-7-7-7-7-7-7-7-7------------|
|---------------------------------------10-5----------------------------|
So I put my Mabelines record on

Kill Kill Kill

CHORUS:
 	A chord diagramA augmentedA
Im gonna drag her ass down to my car
        A chord diagramD MajorD         A chord diagramE MajorE
Im gonna use that Matchlight Mountain Dew crush

        A chord diagramA augmentedA               A chord diagramD MajorD           A chord diagramE MajorE
Im gonna get get get get rid of that girl
         A chord diagramA augmentedA               A chord diagramD MajorD           A chord diagramE MajorE
Im gonna get get get get rid of that girl
         A chord diagramA augmentedA               A chord diagramD MajorD           A chord diagramE MajorE      A chord diagramA augmentedA    A chord diagramD MajorD  A chord diagramA augmentedA
Im gonna get get get get rid of that girl tonight


A chord diagramD MajorD                   A chord diagramA augmentedA
Everytime I see him he's with she
          A chord diagramD MajorD                 A chord diagramA augmentedA
I'm gonna make her legs all wobbely
A chord diagramD MajorD               A chord diagramA augmentedA
I can't wait to punch out her cheeks
A chord diagramBB                   A chord diagramE MajorE
Then that boy'll be all for me

So when we pass her on the way to school
He'll no longer say how she's so cool to me

A chord diagramE MajorE|-----------------------------------|
A chord diagramBB|-----------------------------------|
A chord diagramG+G|-----------------------------------|
A chord diagramD MajorD|--------------4-4-5-5-4-4----------|
A chord diagramA augmentedA|------4-4-7-7-------------7-7-4-4--|
A chord diagramE MajorE|--5-5------------------------------|


A chord diagramA augmentedA     A chord diagramD MajorD      A chord diagramE MajorE           A chord diagramA augmentedA      A chord diagramD MajorD    A chord diagramE MajorE    A chord diagramA augmentedA
Get rid of that girl     get rid of that girl

See that boy...

I'm gonna hit her...

I'm gonna get get...

                A chord diagramA augmentedA     A chord diagramD MajorD      A chord diagramE MajorE           A chord diagramA augmentedA    A chord diagramD MajorD
Get rid of that girl     get rid of that girl
    A chord diagramE MajorE           A chord diagramA augmentedA     A chord diagramD MajorD      A chord diagramE MajorE                A chord diagramA augmentedA

Almost there ...

Sign in to get your own page with links to favourite songs and more. You are just one click away...

Login with Facebook Login with Google