Log in

One click and you are in

Login with Facebook Login with Google

Why sign up and log in

Guitar Tabs Explorer
The Donnas tabs for Love you till it hurts

Guitar tabs

Album: Bitchin'

Tuning: Standard
Tabbed by: Iggy you know! (25th)

my 25th tab. it's a big deal to me.
Intro
e----------------|
B----------------|
G-7-7-9-9--------|
D-7-7-9-9-9-9~---|
A-5-5-7-7-9-9~---|
E---------7-7~---|

e----------------|
B----------------|
G-7-7------------|
D-7-7-5-5-9~-----|
A-5-5-5-5-9~-----|
E-----3-3-7~-----|


VErse
"I've been lookin' you...."
e---|-------------|
B-r-|-------------|
G-e-|-7-7-9-9-----|Mute before singer begins next stanza.
D-s-|-7-7-9-9-9-9-|
A-t-|-5-5-7-7-9-9-|
E---|---------7-7-|

e---|------------|
B-r-|------------|
G-e-|-7-7--------|
D-s-|-7-7-5-5-9--|
A-t-|-5-5-5-5-9--|
E---|-----3-3-7--|

Pre-Chorus
Hard to hear at this point. more or less just play to the lyrics.
it's what i do for this part.
"You know I've got plans for you and me..."
e------------------------------------------|
B------------------------------------------|
G------------------------------------------|
D------------------------------------------|
A------------------------------------------|
E----------10---10---9----7--9----10--7----|

"And I'm gonna make my mark..."
e-------------------------|
B-------------------------|
G-------------------------|
D-------------------------|
A-----------------------7-|
E----10---10----9---7-----|

 "know what i mean "
e-----------------------|
B-------------7---------|
G------7----9-9^(11)----|
D-9---------------------|
A-----------------------|
E-----------------------|


VErse
"Do i make you nervous ..."
e---|-------------|
B-r-|-------------|
G-e-|-7-7-9-9-----|
D-s-|-7-7-9-9-9-9-|
A-t-|-5-5-7-7-9-9-|
E---|---------7-7-|

"I'm ready to go..."
e---|------------|
B-r-|------------|
G-e-|-7-7--------|
D-s-|-7-7-5-5-9--|
A-t-|-5-5-5-5-9--|
E---|-----3-3-7--|


Pre-Chorus
"You know I've got plans for you and me..."
e------------------------------------------|
B------------------------------------------|
G------------------------------------------|
D------------------------------------------|
A------------------------------------------|
E----------10---10---9----7--9----10--7----|

"And I'm gonna make my mark..."
e-------------------------|
B-------------------------|
G-------------------------|
D-------------------------|
A-----------------------7-|
E----10---10----9---7-----|

 "know what i mean "
e-----------------------|
B-------------7---------|
G------7----9-9^(11)----|
D-9---------------------|
A-----------------------|
E-----------------------|


Chorus
"Let me touch you"
e---------------|
B---------------|
G---------------|
D-9---5---2---7-|
A-9---5---2---7-|
E-7---3---0---5-|

"I wanna play with your emotions..."
e------------|
B------------|
G------------|
D-9---5---2--|
A-9---5---2--|
E-7---3---0--|

(Backing vocals)"...Mo---tions..."
e-------------------------------|
B-------------------------------|
G-------------------7-----------|
D-------------------7-----7-----|
A-------------------5-----4-----|
E-------------------------------|

"I'm dreaming of you..."
e---------------|
B---------------|
G---------------|
D-9---5---2---7-|
A-9---5---2---7-|
E-7---3---0---5-|

"My possession..."
e-------------------------|
B-------------------------|
G-------------------------|
D-5------------2----------|
A-5------------2----------|
E-3------------0----------|


Intro
"I'm gonna love you till it hurts..."
e----------------|
B----------------|
G-7-7-9-9--------|
D-7-7-9-9-9-9~---|
A-5-5-7-7-9-9~---|
E---------7-7~---|

e----------------|
B----------------|
G-7-7------------|
D-7-7-5-5-9~-----|
A-5-5-5-5-9~-----|
E-----3-3-7~-----|


Pre-Chorus
"You know I've got plans for you and me..."
e------------------------------------------|
B------------------------------------------|
G------------------------------------------|
D------------------------------------------|
A------------------------------------------|
E----------10---10---9----7--9----10--7----|

"And I'm gonna make my mark..."
e-------------------------|
B-------------------------|
G-------------------------|
D-------------------------|
A-----------------------7-|
E----10---10----9---7-----|

 "know what i mean "
e-----------------------|
B-------------7---------|
G------7----9-9^(11)----|
D-9---------------------|
A-----------------------|
E-----------------------|


Chorus
"Let me touch you"
e---------------|
B---------------|
G---------------|
D-9---5---2---7-|
A-9---5---2---7-|
E-7---3---0---5-|

"I wanna play with your emotions..."
e------------|
B------------|
G------------|
D-9---5---2--|
A-9---5---2--|
E-7---3---0--|

(Backing vocals)"...Mo---tions..."
e-------------------------------|
B-------------------------------|
G-------------------7-----------|
D-------------------7-----7-----|
A-------------------5-----4-----|
E-------------------------------|

"I'm dreaming of you..."
e---------------|
B---------------|
G---------------|
D-9---5---2---7-|
A-9---5---2---7-|
E-7---3---0---5-|

"My possession..."
e-------------------------|
B-------------------------|
G-------------------------|
D-5------------2----------|
A-5------------2----------|
E-3------------0----------|


Bridge
(This part with the castannettes (if i even spelled that right) is the only
part i'm unsure of.)
"Love you till it hurts. i'm gonna show you what it feels like..."
e---------------------------|
B---------------------------|
G---------------------------|
D---------------------------|
A-7-7--7-7/9-7--5-5-7-7/9-7-|X3
E-5-5--5-5/7-5--3-3-5-5/7-5-|

"whoa."
e---------------------------|
B---------------------------|
G---------------------------|
D---------------------------|
A-7-7--7-7/9-7--2~~~~~~~~---|
E-5-5--5-5/7-5--0~~~~~~~~---|


Solo
e---------------------------------|
B------7------------7-------------|
G----7---9-7--9^(11)~~----7-------|
D-/9-------------------/9---9-9-9-|
A---------------------------------|
E---------------------------------|

e-----------------------------------------|
B--------------------------------12/------|
G--------------------------------14^(16)/-|
D----------12-11-12-12^(14)v12-9----------|
A-----5----14-12-14-----------------------|
E-2-5---7---------------------------------|

e-----------------------7-7h10p7------------|
B------7------------7------------10-10^(12)-|
G----7---9-7--9^(11)~~----------------------|
D-/9----------------------------------------|
A-------------------------------------------|
E-------------------------------------------|

e-10^(12)v(10)~~----10-12-10--10-12p10----12^(14)-12^(14)-|
B----------------12--------------------12-----------------|
G---------------------------------------------------------|
D---------------------------------------------------------|
A---------------------------------------------------------|
E---------------------------------------------------------|


Pre-Chorus
"You know I've got plans for you and me..."
e------------------------------------------|
B------------------------------------------|
G------------------------------------------|
D------------------------------------------|
A------------------------------------------|
E----------10---10---9----7--9----10--7----|

"And I'm gonna make my mark..."
e-------------------------|
B-------------------------|
G-------------------------|
D-------------------------|
A-----------------------7-|
E----10---10----9---7-----|

 "know what i mean "
e-----------------------|
B-------------7---------|
G------7----9-9^(11)----|
D-9---------------------|
A-----------------------|
E-----------------------|


Chorus
"Let me touch you"
e---------------|
B---------------|
G---------------|
D-9---5---2---7-|
A-9---5---2---7-|
E-7---3---0---5-|

"I wanna play with your emotions..."
e------------|
B------------|
G------------|
D-9---5---2--|
A-9---5---2--|
E-7---3---0--|

(Backing vocals)"...Mo---tions..."
e-------------------------------|
B-------------------------------|
G-------------------7-----------|
D-------------------7-----7-----|
A-------------------5-----4-----|
E-------------------------------|

"I'm dreaming of you..."
e---------------|
B---------------|
G---------------|
D-9---5---2---7-|
A-9---5---2---7-|
E-7---3---0---5-|

"My possession..."
e-------------------------|
B-------------------------|
G-------------------------|
D-5------------2----------|
A-5------------2----------|
E-3------------0----------|


Bridge
Back to the part that i wasn't so sure about.
"Love you till it hurts. i'm gonna show you what it feels like..."
e---------------------------|
B---------------------------|
G---------------------------|
D---------------------------|
A-7-7--7-7/9-7--5-5-7-7/9-7-|X3
E-5-5--5-5/7-5--3-3-5-5/7-5-|

"whoa."
e---------------------------|
B---------------------------|
G---------------------------|
D---------------------------|
A-7-7--7-7/9-7--2~~~~~~~~---|
E-5-5--5-5/7-5--0~~~~~~~~---|

the song ends on that A chord diagramE MajorE chord. that's the song in a nutshell.
complaints/compliments are very much appreciated to
Reptiliahasnoend@yahoo.com or Midi_iggy@yahoo.com. if even
one person tells me i did a good job, that person'll like, make my day.

Almost there ...

Sign in to get your own page with links to favourite songs and more. You are just one click away...

Login with Facebook Login with Google