Log in

One click and you are in

Login with Facebook Login with Google

Why sign up and log in

Guitar Tabs Explorer
The Donnas tabs for Lana and stevie

Guitar tabs

Lana & Stevie - The Donnas - The Donnas (1997)


Verse
e|-----------|
b|-----------|
g|--4--------|
d|--4--4--7--|
a|--2--4--7--|
A chord diagramE MajorE|-----2--5--|


Chorus
e|-----------|--------|
b|-----------|--------|
g|--7--9-----|--------|
d|--7--9--9--|--7--4--|
a|--5--7--9--|--7--4--|
A chord diagramE MajorE|--------7--|--5--2--|

e|-----------|
b|-----------|
g|--4--7--9--|
d|--4--7--9--|
a|--2--5--7--|

Almost there ...

Sign in to get your own page with links to favourite songs and more. You are just one click away...

Login with Facebook Login with Google