Log in

One click and you are in

Login with Facebook Login with Google

Why sign up and log in

Guitar Tabs Explorer
The Donnas bass tabs for Lana and stevie

Bass tabs

Donnas-You Make Me Hot
Tabbed by BigBangBert


Tuning: E A D G

Main part

G|---------------------------------------------------------------------------|
D|---------------------------------------------------------------------------|
A|-2-2-2-2-2-2---------------------------------------------------------------| 6x
E|-------------2-2-2-5-5-5---------------------------------------------------|

Chorus

G|---------------------------------------------------------------------------|
D|---------------------------------------------------------------------------|
A|-5-5-7-7-------------------------------------------------------------------|3x
E|---------7-7-7-7-----------------------------------------------------------|


G|---------------------------------------------------------------------------|
D|---------------------------------------------------------------------------|
A|---------------------------------------------------------------------------|2x
E|-5-5-5-5-5-5-2-2-2---------------------------------------------------------|


Kinda Bridge

G|---------------------------------------------------------------------------|
D|---------------------------------------------------------------------------|
A|-2-5-7-7-7-7-7-7-7---------------------------------------------------------|2x
E|---------------------------------------------------------------------------|


G|---------------------------------------------------------------------------|
D|---------------------------------------------------------------------------|
A|-2-2-2-2-2-2-2-------------------------------------------------------------|1x
E|---------------------------------------------------------------------------|


There goes the order:

Main part 1x

Chorus 1x
Main part 1x

Chorus 1x

Bridge 1x
Main part 1x

Chorus 1x
Main part as Outro

There you go! Enjoy!

Almost there ...

Sign in to get your own page with links to favourite songs and more. You are just one click away...

Login with Facebook Login with Google