Log in

One click and you are in

Login with Facebook Login with Google

Why sign up and log in

Guitar Tabs Explorer
The Donnas tabs for Bitchin

Guitar tabs

Album:Bitchin'
Year 2007
Tabbed By:Scab {Scab138@aol.com}

pm= palm mute
*= pinch harmonic
^br= bend and release

Standard Tuning

After Drums & Bass Starts

Part 1
e-------------------------------------------------------------------|
B-------------------------------------------------------------------|
G--5--5-5--5--5-5--5--5-5----------------------------3--3-3--3--3-3-|
D--5--5-5--5--5-5--5--5-5---5-5-5---6--6-6--6--6-6---3--3-3--3--3-3-|[4x]
A--3--3-3--3--3-3--3--3-3---5-5-5---6--6-6--6--6-6---1--1-1--1--1-1-|
E---------------------------3-3-3---4--4-4--4--4-4------------------|
      pm      pm      pm               pm      pm       pm

Part 2
e-------------------------------------------------------------------|
B-------------------------------------------------------------------|
G--5--555-555-555-3333-555-----------------5------------------------|
D--5--555-555-555-3333-355---<==[4x]--THEN-5--hold------------------|
A--3--333-333-333-1111-333-----------------3------------------------|
E-------------------------------------------------------------------|


Part 3
e------------------------------------------------------------------|
B------------------------------------------------------------------|
G---------0---0-0-----3---------------5*-----5*-----5*-----5*------|
D-----1-3---------3-1----<===[3x]then------------------------------|
A-3-3------------------------------------3-3----3-3----3-3----3-3--|
E------------------------------------------------------------------|
                                          pm     pm     pm     pm
Part 4
e-------------3-3------6-----|
B-----4-6-8-------6-4--------|
G-5-5---------0-0------3-----|[2x] 2 guitars or 1 with octaves
D-----1-3-5-------3-1--------|
A-3-3------------------------|
E----------------------------|

Part 4a
e-------------------------------------------------11----15----|
B---------6-8---8-----8-----8-----8----4-----8----14^br-18^br-|
G--5-5--8------10^br-10^br-10^br-10^br-6^br-10^br-------------|
D-------------------------------------------------------------|
A-------------------------------------------------------------|
E-------------------------------------------------------------|

Part 5                                  Part 5a
e---------------------------------|    |-------------------------|
B---------------------------------|    |-------------------------|
G--5-5-5-5-8-8-8-8----------------|    |----5-----5-----5-----5--|[4x]1st
D--5-5-5-5-8-8-8-8-6-6-6-6-8-8-8-8|[4x]|----5-----5-----5-----5--|  then
A--3-3-3-3-6-6-6-6-6-6-6-6-8-8-8-8|    |333-3-333-3-333-3-333-3--|[8x]2nd
E------------------4-4-4-4-6-6-6-6|    |-------------------------|
                                        pm    pm    pm    pm
Song Order
Part 1 [4x]
Part 2 [3x]
Part 3
Part 4 [2x]
Part 4a
Part 5 [4x]
Part 5a [4x]
Part 5 [4x]

Almost there ...

Sign in to get your own page with links to favourite songs and more. You are just one click away...

Login with Facebook Login with Google