Log in

One click and you are in

Login with Facebook Login with Google

Why sign up and log in

Guitar Tabs Explorer
The Donnas tabs for 5 oclock in the morning

Guitar tabs with lyrics

5 o'clock in the morning
Guitar TAB by Mark


intro (2x):
                          A chord diagramD MajorD A chord diagramE MajorE                     A chord diagramE MajorE A chord diagramE MajorE  A chord diagramBB
----------------------------------------------------------|
----------------------------------------------------------|
----------------------------------------------------------|
--------------------------7-9---------------------9-9--9--|
------------5~------------5-7--------------5~-----7-7--9--|
--7~--5-7-7-----7-5-7-7-7--------7~--5-7-7----7-5------7--|
      PM....    PM.......            PM....   PM.
verse (2x)
     A chord diagramBB       A chord diagramE MajorE      A chord diagramD MajorD      A chord diagramF#F#    A chord diagramBB    A chord diagramBB    A chord diagramE MajorE     A chord diagramBB
-----------------------------------------------------|
-----------------------------------------------------|
-------------9------7------11--------------9-9-------|
-----9-------9------7------11----9----9--9-9-9---9---|
-----9---7-7-7--5-5-5--9-9-9-----9----9--9-7-7---9---|
-7-7-7---------------------------7-10-7--7-------7---|
 PM.     PM.    PM.    PM.


   A chord diagramD MajorD                 A chord diagramC#C#
---------------------------|
---------------------------|
---7-----------------6-----|
---7-----------------6-----|
---5-5-5-5-5-5-5-5---4-----|
---------------------------|
     PM ? ? ? ? ??

Chorus:
  A chord diagramBB    A chord diagramE MajorE  A chord diagramBB          A chord diagramF#F#        A chord diagramD MajorD A chord diagramE MajorE
-----------------------------------------|
-----------------------------------------|
-------9-------------11-11-----7/9--9----|
-------9-------------11-11-----7/9--9----|
--9--9-7--9---7/9-9--9--9------5/7--7----|
--7--7----7---5/7-7----------------------|
              ?

end of chorus:

 A chord diagramA augmentedA           A chord diagramF#F#
------------------------------------|
------------------------------------|
-------------11---------------------|
-7--7--7--7--11---------------------|
-7--7--7--7--9----------------------|
-5--5--5--5-------------------------| repeat verse, chorus

2nd time, after chorus (2x):

 A chord diagramBB      A chord diagramA augmentedA A chord diagramD MajorD        A chord diagramE MajorE
-----------------------------------------------|
-4--------7--------9----7----------------------|
-4------6-7--------9------7-----------7~-------|
-4------7-7--------9---------9--9-7-9-----9----|
-2------7-5--------7---------------------------|
--------5--------------------------------------|
                                PM...     PM

 A chord diagramE MajorE                                  A chord diagramD MajorD    A chord diagramC#C# A chord diagramC majorC
-----------------------------------------------|
------------------------------------7----6--5--|
------------------------------------7----6--5--|
-9--11-9---11-9--9-11--11-9---------7----6--5--|
-7--7--7---7--7--7-7---7--7---------5----4--3--|
-----------------------------------------------|

play 2x:

---------------------------------------------------------|
--------------------------------------------9-9---7------|
-----------7~----------7-9-----------7~-----9-9---7------|
--9~-9-7-9----9-7-9-9-------9~-9-7-9----9-7--------------|
---------------------------------------------------------|
---------------------------------------------------------|
     PM...    PM.....          PM...    PM.

Final Verse- 2nd Guitar (2x): (1st guitar plays verse, like above)

---------------------------------------------------------|
-----7----7----------------------------------------------|
--9^---9^---9^9-7-9-7------------7--------------7--------|
-----------------------9-9---7-9---9--9-----7-9---9--9---|
---------------------------------------------------------|
---------------------------------------------------------|

3rd time:

---------------------------------------------|
-----7----7-----------------7----7-------10^-|
--9^---9^---9^9-7-9-7----9^---9^---9^9-7-----|   NOTE: 9^9= bend and release
---------------------------------------------|
---------------------------------------------|
---------------------------------------------|

End guitar solo:


-------------------------------------------------------------------------------|
-------------------------------------------------------------------------------|
--9^(pick as slowly release bend, some harmonics)-7--------7------7------7-9^--|
-------------------------------------------------------7h9----7h9---9--9-------|
-------------------------------------------------------------------------------|
-------------------------------------------------------------------------------|


-----------------------------------------------------------------------7--|
-7---7-7----7----7-7--------7----7-7----7----7-7-10^--7----7-10^-7-10^----|
---9^----9^---9^-----9^-------9^-----9^---9^------------9-----------------|
--------------------------------------------------------------------------|
--------------------------------------------------------------------------|
--------------------------------------------------------------------------|

-----7-7-----7-7-----7-7-----7-10p7-10p7-----10p7-10p7-----10p7-10p7------|
-10^-----10^-----10^-----10^-------------t10-----------t10-----------t10--|
--------------------------------------------------------------------------|
--------------------------------------------------------------------------|
--------------------------------------------------------------------------|
--------------------------------------------------------------------------|

Continue this pattern, occasionally only one 10p7 on A chord diagramE MajorE string as seen right here:

-10p7-10p7-----10p7-10p7-----10p7-10p7-----10p7-10p7-----10p7-10p7------10p7------|
-----------t10-----------t10-----------t10-----------t10-----------t10-------t10--|
----------------------------------------------------------------------------------|
----------------------------------------------------------------------------------|
----------------------------------------------------------------------------------|
----------------------------------------------------------------------------------|

during fade out:
------------------|
-----7-7----7\----|
--9^-----9^-------|
------------------|

Almost there ...

Sign in to get your own page with links to favourite songs and more. You are just one click away...

Login with Facebook Login with Google