Log in

One click and you are in

Login with Facebook Login with Google

Why sign up and log in

Guitar Tabs Explorer
Don Martin Three guitar tabs for Fire as a metaphor

Guitar tabs

BY DON MARTIN THREE
FROM THE SELF TITLED 12"

For the one kid out there who is fortunate enough to know this band, here you go. Email
at RedWineEmo@aol.com if you have anything to add or are looking for emo/screamo tabs. Cheers.
h: hammer
p: pull
.: palm mute


Some good, tasty emo. Standard tuning, played a little sloppy.


                   (Intro)
|----------------------------------------------|
|------(7)------7--7---------------------------|
|------(7)------------------------7--7---------|
|-------9--9-9-------9----7--7-7-------7-------|  played a few times. listen to the song.
|----------------------------------------------|
|----------------------------------------------|

                   (Verse)
|-----------------FEEDBACK---------------------|
|-----------------FEEDBACK---------------------|
|-----------------FEEDBACK---------------------|
|-----------------FEEDBACK---------------------|
|-----------------FEEDBACK---------------------|
|-----------------FEEDBACK---------------------|

                  (Bridge)
|----------------------------------------------|
|-------8p7h8p7h8p7h8p7h8p7h8p7h8p7h8p7h-------|
|----------------------------------------------|
|----------------------------------------------|
|----------------------------------------------|
|----------------------------------------------|  \
                                                   > x3
|-------------------------------------7--------|  /
|-------8p7h8p7h8p7h8p7h8p7h8p7h8p7------------|
|----------------------------------------------|
|----------------------------------------------|
|----------------------------------------------|
|----------------------------------------------|

|----------------------------------------------|
|-------8p7h8p7h8p7h8p7h8p7h8p7h8p7h8p7h-------|
|----------------------------------------------|
|----------------------------------------------|
|----------------------------------------------|
|----------------------------------------------|

|----------------------------------------------|
|-------8p7h8p7h8p7h8p7h8p7----8--7--8--7------|
|----------------------------------------------|
|----------------------------------------------|
|----------------------------------------------|
|----------------------------------------------|


                    (Break)
|--------------------------------------------------|
|--------------------------------------------------|
|---9--9-9---9--9--7--------7--7-7--7-7--7-7-7-7---|
|---9--9-9-----------7--9---7--7-7--7-7--7-7-7-7---|
|---7--7-7------------------5--5-5--5-5--5-5-5-5---|
|--------------------------------------------------|
|--------------------------------------------------|
|------------9--9-7--12----------------------------|
|---9--9-9------------------7--7-7--7-7--7-7-7-7---|
|---9--9-9------------------7--7-7--7-7--7-7-7-7---|
|---7--7-7------------------5--5-5--5-5--5-5-5-5---|
|--------------------------------------------------|


|--------------------------------------------------|
|---------------TWO--------------------------------|
|---9--9-9----MACHINES------7--7-7--7-7--7-7-7-7---|
|---9--9-9-----CROSS--------7--7-7--7-7--7-7-7-7---|
|---7--7-7-----PATHS--------5--5-5--5-5--5-5-5-5---|
|--------------------------------------------------|

|--------------------------------------------------|
|---------------IN---------------------------------|
|---9--9-9------A-----------7--7-7--7-7--7-7-7-7---|
|---9--9-9----LATE-NIGHT----7--7-7--7-7--7-7-7-7---|  Repeat that as you will
|---7--7-7----COLLISION-----5--5-5--5-5--5-5-5-5---|
|--------------------------------------------------|


The following are played here and there throughout. You mess around with them.


|--------------------------------------------------|
|--------------------------------------------------|
|---9--9-9---9--9--7--------7--7-7--7-7--7-7-7-7---|
|---9--9-9-----------7--9---7--7-7--7-7--7-7-7-7---|
|---7--7-7------------------5--5-5--5-5--5-5-5-5---|
|--------------------------------------------------|

|--------------------------------------------------|
|--------------------------------------------------|
|---9--9-9---9--9-7--9p7----7--7-7--7-7--7-7-7-7---|
|---9--9-9---------------7--7--7-7--7-7--7-7-7-7---|
|---7--7-7------------------5--5-5--5-5--5-5-5-5---|
|--------------------------------------------------|

|--------------------------------------------------|
|--------------------------------------------------|
|---9--9-9-----999999-9p7---7--7-7--7-7--7-7-7-7---|
|---9--9-9-----......-------7--7-7--7-7--7-7-7-7---|
|---7--7-7------------------5--5-5--5-5--5-5-5-5---|
|--------------------------------------------------|

|--------------------------------------------------|
|--------------7h8p7~------------------------------|
|---9--9-9------------------7--7-7--7-7--7-7-7-7---|
|---9--9-9------------------7--7-7--7-7--7-7-7-7---|
|---7--7-7------------------5--5-5--5-5--5-5-5-5---|
|--------------------------------------------------|

|--------------------------------------------------|
|------------9--9-7--12----------------------------|
|---9--9-9------------------7--7-7--7-7--7-7-7-7---|
|---9--9-9------------------7--7-7--7-7--7-7-7-7---|
|---7--7-7------------------5--5-5--5-5--5-5-5-5---|
|--------------------------------------------------|

                     (OUTRO)
|--------------7-7---9-7---------------------------|
|-----------9------9-----9-------------------------|
|---9--9-9------------------7--7-7--7-7--7-7-7-7---|
|---9--9-9------------------7--7-7--7-7--7-7-7-7---| x3
|---7--7-7------------------5--5-5--5-5--5-5-5-5---|
|--------------------------------------------------|


|------------7-7---9-7---------7-7---9-7-----------|
|---------9------9-----9~---9------9-----9~--------|
|--------------------------------------------------|
|----------s-o-f-t-l-y-----------------------------|
|--------------------------------------------------|
|--------------------------------------------------|

Almost there ...

Sign in to get your own page with links to favourite songs and more. You are just one click away...

Login with Facebook Login with Google